Oops, an error
Loading. Please wait.

You Got No Right tab

version 2
version 2

Whole song

Interactive

1,199 views 1 this week
3 commentsread comments
1 2 3 4 5
1 last vote to show rating
add to favorites
×
Save as Personal and add changes to this tab that will be seen only by you. Learn more ›
×
You can save this tab as Personal to edit and correct it or add notes. All changes will be seen only by you. Learn more »
launch autoscroll
font size
0
reset
how to read this tab
guitar tuner
backing track
0:00
0:00
edit
Autoscroll
slow
fast
+/-
esc
set tempo
stop
Author
Difficulty
Velvet Revolver
Contraband
You Got No Right

Tabbed by Austin Knight VR RULES YOUR TWISTED INDEPENDENCE RULES! 
i took this tab from my friend who did it on another site. just spreading the VR fever around. PEACE SUCKA!



Intro:

E------------------------------------------|
B------------------------------------------|
G------------------------------------------|
D--7-7-7-7---7-7-7-7---7-7-7-7---7-7-7-7---|
A--7-7-7-7---7-7-7-7---7-7-7-7---7-7-7-7---|
E--5-5-5-5---5-5-5-5---5-5-5-5---5-5-5-5---|

E------------------------------------------|
B------------------------------------------|
G--7-7-7-7---7-7-7-7---5-5-5-5---5-5-5-5---|
D--7-7-7-7---7-7-7-7---5-5-5-5---5-5-5-5---|
A--5-5-5-5---5-5-5-5---3-3-3-3---3-3-3-3---|
E------------------------------------------|


Verse:

E------------------------------------------| \
B------------------------------------------| |
G------------------------------------------| |
D--7-7-7-7---7-7-7-7---7-7-7-7---7-7-7-7---| |
A--7-7-7-7---7-7-7-7---7-7-7-7---7-7-7-7---| |
E--5-5-5-5---5-5-5-5---5-5-5-5---5-5-5-5---| |
                                             | x2
E------------------------------------------| |
B------------------------------------------| |
G--7-7-7-7---7-7-7-7---5-5-5-5---5-5-5-5---| |
D--7-7-7-7---7-7-7-7---5-5-5-5---5-5-5-5---| |
A--5-5-5-5---5-5-5-5---3-3-3-3---3-3-3-3---| |
E------------------------------------------| /

E------------------------------------------|
B------------------------------------------|
G--7-7-7-7---7-7-7-7---5-5-5-5---5-5-5-5---|
D--7-7-7-7---7-7-7-7---5-5-5-5---5-5-5-5---|
A--5-5-5-5---5-5-5-5---3-3-3-3---3-3-3-3---|
E------------------------------------------|

E------------------------------------------|
B------------------------------------------|
G------------------------------------------|
D--7-7-7-7---7-7-7-7---7-7-7-7---7-7-7-7---|
A--7-7-7-7---7-7-7-7---7-7-7-7---7-7-7-7---|
E--5-5-5-5---5-5-5-5---5-5-5-5---5-5-5-5---|


Chorus:

Guitar 1
E-------------------|
B-------------------|
G----3---------7----| x3
D----3----5----7----|
A----1----5----5----|
E---------3---------|

E-------------------|
B-------------------|
G----3----5----7----|
D----3----5----7----|
A----1----3----5----|
E-------------------|

Guitar 2
E-------0--------------0------0h2-----2-----0-----0h2--------|
B--3------3-------3------3--------3-----3-----3-------3------|
G----2------2-------2------2--------2-----2-----2-------2----| x3
D-0----0------0--0----0------0--------0-----0-----0-------0--|
A------------------------------------------------------------|
E------------------------------------------------------------|

E---------0-----------------------------------0-------0h2----|
B---3-------3------------1-----1--------3-------3------------|
G-----2-------2--------0---0--------------2-------2----------|
D-0-----0-------0----2-------2--------0-----0-------0--------|
A------------------3-----------------------------------------|
E------------------------------------------------------------|


Verse:

Guitar 1
E------------------------------------------| \
B------------------------------------------| |
G--3-3-3-3---3-3-3-3---5-5-5-5---5-5-5-5---| |
D--3-3-3-3---3-3-3-3---5-5-5-5---5-5-5-5---| |
A--1-1-1-1---1-1-1-1---3-3-3-3---3-3-3-3---| |
E------------------------------------------| |
                                             | x2
E------------------------------------------| |
B------------------------------------------| |
G--7-7-7-7---7-7-7-7---7-7-7-7---7-7-7-7---| |
D--7-7-7-7---7-7-7-7---7-7-7-7---7-7-7-7---| |
A--5-5-5-5---5-5-5-5---5-5-5-5---5-5-5-5---| |
E------------------------------------------| /

E------------------------------------------|
B------------------------------------------|
G--3-3-3-3---3-3-3-3---5-5-5-5---5-5-5-5---| x2
D--3-3-3-3---3-3-3-3---5-5-5-5---5-5-5-5---|
A--1-1-1-1---1-1-1-1---3-3-3-3---3-3-3-3---|
E------------------------------------------|

E------------------------------------------|
B------------------------------------------|
G--7-7-7-7---7-7-7-7---7-7-7-7---7-7-7-7---|
D--7-7-7-7---7-7-7-7---7-7-7-7---7-7-7-7---|
A--5-5-5-5---5-5-5-5---5-5-5-5---5-5-5-5---|
E------------------------------------------|

Guitar 2
E------------------------------------------------------|
B------------------------------------------------------|
G------0-3~~--------3-5~~--------5-7~~--------5-7~~----|
D----3------------5------------7------------7----------|
A--1------------3------------5------------5------------|
E------------------------------------------------------|

E------------------------------------------------------|
B------------------------------------------------------|
G------0-3~~--------3-5~~---------------------5-7~~----|
D----3------------5------------4-5-5~~------7----------|
A--1------------3------------5------------5------------|
E------------------------------------------------------|

E------------------------------------------------------|
B------------------------------------------------------|
G------0-3~~--------3-5~~--------0-3~~--------3-5~~----|
D----3------------5------------3------------5----------|
A--1------------3------------1------------3------------|
E------------------------------------------------------|

E------------------------------------------------------|
B------------------------------------------------------|
G------5-7~~--------5-7~~-------------X--X------X------|
D----7------------7-------------------X--X------X------|
A--5------------5---------------------X--X------X------|
E------------------------------------------------------|


Chorus:

E------------------------------------------| \
B------------------------------------------| |
G--3-3-3-3---3-3-3-3-----------------------| |
D--3-3-3-3---3-3-3-3---5-5-5-5---5-5-5-5---| |
A--1-1-1-1---1-1-1-1---5-5-5-5---5-5-5-5---| |
E----------------------3-3-3-3---3-3-3-3---| |
                                             | x4
E------------------------------------------| |
B------------------------------------------| |
G--7-7-7-7---7-7-7-7---7-7-7-7---7-7-7-7---| |
D--7-7-7-7---7-7-7-7---7-7-7-7---7-7-7-7---| |
A--5-5-5-5---5-5-5-5---5-5-5-5---5-5-5-5---| |
E------------------------------------------| /


Bridge:

Guitar 1
E------------------------------------------| \
B------------------------------------------| |
G------------------------------------------| |
D--2-2-2-2---2-2-2-2---5-5-5-5---5-5-5-5---| |
A--2-2-2-2---2-2-2-2---5-5-5-5---5-5-5-5---| |
E--0-0-0-0---0-0-0-0---3-3-3-3---3-3-3-3---| |
                                             | x3
E------------------------------------------| |
B------------------------------------------| |
G--7-7-7-7---7-7-7-7---7-7-7-7---7-7-7-7---| |
D--7-7-7-7---7-7-7-7---7-7-7-7---7-7-7-7---| |
A--5-5-5-5---5-5-5-5---5-5-5-5---5-5-5-5---| |
E------------------------------------------| /

E------------------------------------------|
B------------------------------------------|
G------------------------------------------|
D--3-3-3-3---3-3-3-3---2-2-2-2---2-2-2-2---|
A--3-3-3-3---3-3-3-3---2-2-2-2---2-2-2-2---|
E--1-1-1-1---1-1-1-1---0-0-0-0---0-0-0-0---|


Pre-Solo:

Guitar 1
E----------------------------------------------------------------|
B----------------------------------------------------------------|
G---------------------------------------------0h1h3-0h1h3-0h1h3--|
D--\-\----------------------------0h2h3-0h2h3--------------------|
A---\-\---------------2h3h5-2h3h5--------------------------------|
E----\-\--2h3h5-2h3h5--------------------------------------------|

E--------------------5h7h8p7p5-----------------------------------|
B--------------5h7h8---------------------------------------------|
G--5h7h8-5h7h8---------------------------------------------------|
D----------------------------------------------------------------|
A----------------------------------------------------------------|
E----------------------------------------------------------------|


Solo:

Guitar 1
E----13---12-10-10-------15---13-13-12-12---------12-/-14--------|
B------------------10---------------------10---10----------------|
G----------------------------------------------------------------|
D----------------------------------------------------------------|
A----------------------------------------------------------------|
E----------------------------------------------------------------|

E--14-\-12----12-------------------------------------------------|
B----------15----15-13-15-15~~-\----13---11-11-10~~---10---8-8---|
G----------------------------------------------------------------|
D----------------------------------------------------------------|
A----------------------------------------------------------------|
E----------------------------------------------------------------|

E-------------------------------------------14-12--12---------------|
B--8-7h8h10-10-10--8h10-10-10----12h15-15-12-----15--15-12-15-15~~--|
G-------------------------------------------------------------------|
D-------------------------------------------------------------------|
A-------------------------------------------------------------------|
E-------------------------------------------------------------------|

E--------18-17-15------20-18-18-17-17-15-14h15h17~~----------20-17--|
B--15-15------------15---------------------------------15-15--------|
G-------------------------------------------------------------------|
D-------------------------------------------------------------------|
A-------------------------------------------------------------------|
E-------------------------------------------------------------------|

E-----20-17-------22~~--22~~----20----20----20---------17--17-\-----|
B--15----------15------------------22----22----20~~-----------------|
G-------------------------------------------------------------------|
D-------------------------------------------------------------------|
A-------------------------------------------------------------------|
E-------------------------------------------------------------------|

E--17-\---17-\---17-\---17-\---17-\---17-\---14h15-14b-(15)r-b-(15)r|
B--------------------------------------------------Bend and release |
G--------------------------------------------------many times.------|
D-------------------------------------------------------------------|
A-------------------------------------------------------------------|
E-------------------------------------------------------------------|

Guitar 2
E------------------------------------------| \
B------------------------------------------| |
G--3-3-3-3---3-3-3-3-----------------------| |
D--3-3-3-3---3-3-3-3---5-5-5-5---5-5-5-5---| |
A--1-1-1-1---1-1-1-1---5-5-5-5---5-5-5-5---| |
E----------------------3-3-3-3---3-3-3-3---| |
                                             |
E------------------------------------------| |
B------------------------------------------| |
G--7-7-7-7---7-7-7-7---7-7-7-7---7-7-7-7---| |
D--7-7-7-7---7-7-7-7---7-7-7-7---7-7-7-7---| |
A--5-5-5-5---5-5-5-5---5-5-5-5---5-5-5-5---| |
E------------------------------------------| |
                                             | x2
E------------------------------------------| |
B------------------------------------------| |
G--3-3-3-3---3-3-3-3---5-5-5-5---5-5-5-5---| |
D--3-3-3-3---3-3-3-3---5-5-5-5---5-5-5-5---| |
A--1-1-1-1---1-1-1-1---3-3-3-3---3-3-3-3---| |
E------------------------------------------| |
                                             |
E------------------------------------------| |
B------------------------------------------| |
G--7-7-7-7---7-7-7-7---7-7-7-7---7-7-7-7---| |
D--7-7-7-7---7-7-7-7---7-7-7-7---7-7-7-7---| |
A--5-5-5-5---5-5-5-5---5-5-5-5---5-5-5-5---| |
E------------------------------------------| /


Verse:

E------------------------------------------| \
B------------------------------------------| |
G--3-3-3-3---3-3-3-3---5-5-5-5---5-5-5-5---| |
D--3-3-3-3---3-3-3-3---5-5-5-5---5-5-5-5---| |
A--1-1-1-1---1-1-1-1---3-3-3-3---3-3-3-3---| |
E------------------------------------------| |
                                             | x2
E------------------------------------------| |
B------------------------------------------| |
G--7-7-7-7---7-7-7-7---7-7-7-7---7-7-7-7---| |
D--7-7-7-7---7-7-7-7---7-7-7-7---7-7-7-7---| |
A--5-5-5-5---5-5-5-5---5-5-5-5---5-5-5-5---| |
E------------------------------------------| /


Chorus:

Guitar 1
E------------------------------------------| \
B------------------------------------------| |
G--3-3-3-3---3-3-3-3-----------------------| |
D--3-3-3-3---3-3-3-3---5-5-5-5---5-5-5-5---| |
A--1-1-1-1---1-1-1-1---5-5-5-5---5-5-5-5---| |
E----------------------3-3-3-3---3-3-3-3---| |
                                             | x4
E------------------------------------------| |
B------------------------------------------| |
G--7-7-7-7---7-7-7-7---7-7-7-7---7-7-7-7---| |
D--7-7-7-7---7-7-7-7---7-7-7-7---7-7-7-7---| |
A--5-5-5-5---5-5-5-5---5-5-5-5---5-5-5-5---| |
E------------------------------------------| /

E--*this is where Gtr. 2 begins.-----------| \
B------------------------------------------| |
G--3-3-3-3---3-3-3-3---5-5-5-5---5-5-5-5---| |
D--3-3-3-3---3-3-3-3---5-5-5-5---5-5-5-5---| |
A--1-1-1-1---1-1-1-1---3-3-3-3---3-3-3-3---| |
E------------------------------------------| |
                                             | x3
E------------------------------------------| |
B------------------------------------------| |
G--7-7-7-7---7-7-7-7---7-7-7-7---7-7-7-7---| |
D--7-7-7-7---7-7-7-7---7-7-7-7---7-7-7-7---| |
A--5-5-5-5---5-5-5-5---5-5-5-5---5-5-5-5---| |
E------------------------------------------| /

E------------------------------------------|
B------------------------------------------|
G--3-3-3-3---3-3-3-3---5---------5---------|
D--3-3-3-3---3-3-3-3---5---------5---------|
A--1-1-1-1---1-1-1-1---3---------3---------|
E------------------------------------------|

E------------------------------------------|
B------------------------------------------|
G--7---------------------------------------|
D--7---------------------------------------|
A--5---------------------------------------|
E------------------------------------------|

Guitar 2

E-----------------------5-\-0----5-\-0---------------------------|
B----------------------------------------------------------------|
G----------------------------------------------------------------|
D--3----7-\-5----5-/-7-------------------------------------------|
A----------------------------------------------------------------|
E----------------------------------------------------------------|

E-------------------------------10---------10-----------------10-|
B----------------------------------13-10------13-10---10-/-13----|
G----------------------------------------------------------------|
D--3-\-0----5----4-/-5-/-7---------------------------------------|
A----------------------------------------------------------------|
E----------------------------------------------------------------|

E--8h10p8----6----5----------------------------------------------|
B----------------------------------------------------------------|
G----------------------------------------------------------------|
D----------------------------------------------------------------|
A----------------------------------------------------------------|
E----------------------------------------------------------------|

E----------------------------|-----------------------------------|
B----------------------------|-----------------------------------|
G----------------------------|-----------------------------------|
D--3----/-5----5--4h5h7------|--5p4--5p4-------------------------|
A----------------------------|-----------5---3----2--0----5------|
E----------------------------|-------------5---------------------|

__________________________________________________________________


Lyrics:


Verse:

I fell through the ice. She won't be coming back again.
It never wins to lie. She said you'll never have no rights.

Chorus:

I've took it farther on the outside. I've took it nearly to the brink.
And if you see me on the outside, you would have barely seen me breathe.

Verse:

Funny right here I find myself, inside a paper cup.
Without a warning or a reason, it's a treason with no answer.
You got no right, to keep me waiting here.
You got no right, to keep the pain in here.
That holds the crown.

Chorus:

And if I fall apart on the outside (You really don't believe me).
And if I take it to the brink.
And if I fall apart on the outside (You really don't believe me).
You would have barely seen me breathe.

Bridge/Pre-Solo:

And if I meet you out tonight.
Will you be loving me forever.
It's always over after the night.
It's always colder after the night.


SOLO (no lyrics)


Verse:

I broke through the ice.
She won't be coming back again.
It's been a year and a night.

Chorus:

And if I fall apart on the outside (You really don't believe me).
And if I take it to the brink.
And if I fall apart on the outside (You really don't believe me).
You would have barely seen me breathe. 
Suggest correction
Creating personal tab
Creating personal tab
You can edit any tab online and save it as your Personal.

You can edit, replace or remove any tab part or add personal notes – all changes will be seen only by you.

Personal tabs can be accessed anytime from any device, even offline.
Learn more »
Give kudos to tab author, rate the tab!
1 2 3 4 5
comments
print report bad tab
3 comments total.
0 reply
wangmaster 353 Apr 05, 2006 04:29 AM

its not bad... but could be better =)

0 reply
Dead Horse 10 Jun 24, 2006 10:02 AM

i reckon uve done a pretty good job on solo build up there man !! :)

0 reply
god of iceland 60 Aug 16, 2008 03:22 PM

how can you call that crap advanced..nothing of it is right

guest
You may want to rate the tab now too:
select rating
Wanna post a correction for this tab? Suggest correction