Oops, an error
Loading. Please wait.

You Got No Right tab

version 3
version 3

Whole song

Interactive

1,919 views 1 this week
8 commentsread comments
1 2 3 4 5
x 5
add to favorites
×
Save as Personal and add changes to this tab that will be seen only by you. Learn more ›
×
You can save this tab as Personal to edit and correct it or add notes. All changes will be seen only by you. Learn more »
launch autoscroll
font size
0
reset
how to read this tab
guitar tuner
backing track
0:00
0:00
edit
Autoscroll
slow
fast
+/-
esc
set tempo
stop
Author
Difficulty
                  you got no right by velvet revolver
tabbed by treehugger93
if you have any questions email me at themightytreehugger@hotmail.co.uk

intro,let ring throughout (gtr 1 acoustic)

e-------------------|-------------------|-------------------|
b-------------------|-------------------|-------------------|
g-------------------|-------------------|-------------------|
d---4-4-4-4-4-4-4-4-|-------------------|---2-2-2-2-2-2-2-2-|
a---5-5-5-5-5-5-5-5-|---1-1-1-1-1-1-1-1-|---3-3-3-3-3-3-3-3-|
e---5-5-5-5-5-5-5-5-|---1-1-1-1-1-1-1-1-|---3-3-3-3-3-3-3-3-|

you repeat this sequence basically throughout the whole song the chords for this 
are b flat,c,d.

verse

e----------------------|-------------------|-------------------|
b----------------------|-------------------|-------------------|
g----------------------|-------------------|-------------------|
d---4-4-4-4-4-4-4-4----|-------------------|---2-2-2-2-2-2-2-2-|
a---5-5-5-5-5-5-5-5----|---1-1-1-1-1-1-1-1-|---3-3-3-3-3-3-3-3-|
e---5-5-5-5-5-5-5-5----|---1-1-1-1-1-1-1-1-|---3-3-3-3-3-3-3-3-|

i fell through the ice,she wont be coming back again.

e----------------------|-------------------|-------------------|
b----------------------|-------------------|-------------------|
g----------------------|-------------------|-------------------|
d---4-4-4-4-4-4-4-4----|-------------------|---2-2-2-2-2-2-2-2-|
a---5-5-5-5-5-5-5-5----|---1-1-1-1-1-1-1-1-|---3-3-3-3-3-3-3-3-|
e---5-5-5-5-5-5-5-5----|---1-1-1-1-1-1-1-1-|---3-3-3-3-3-3-3-3-|
 it never wins to lie, she said youll never have no rights.

e----------------------|-------------------|-------------------|
b----------------------|-------------------|-------------------|
g----------------------|-------------------|-------------------|
d---4-4-4-4-4-4-4-4----|-------------------|---2-2-2-2-2-2-2-2-|
a---5-5-5-5-5-5-5-5----|---1-1-1-1-1-1-1-1-|---3-3-3-3-3-3-3-3-|
e---5-5-5-5-5-5-5-5----|---1-1-1-1-1-1-1-1-|---3-3-3-3-3-3-3-3-|
      ( she said youll never have no rights ...  no rights)

chorus
e-----------0---------|---------0-------|-0h2--------2---------|
b-----3-------3-------|---3-------3-----|-----3--------3-------|
g-------0-------0-----|-----0-------0---|-------2--------2-----|
d---------3-------3---|-------0-------0-|---------0--------0---|
a---1-----------------|-2---------------|----------------------|
e---------------------|-----------------|----------------------|

ive took it further on the outside...

e-----------0---------|---------0-------|-0h2--------2---------|
b-----3-------3-------|---3-------3-----|-----3--------3-------|
g-------0-------0-----|-----0-------0---|-------2--------2-----|
d---------3-------3---|-------0-------0-|---------0--------0---|
a---1-----------------|-2---------------|----------------------|
e---------------------|-----------------|----------------------|

i took it nearly to the brink

e-----------0---------|---------0-------|-0h2--------2---------|
b-----3-------3-------|---3-------3-----|-----3--------3-------|
g-------0-------0-----|-----0-------0---|-------2--------2-----|
d---------3-------3---|-------0-------0-|---------0--------0---|
a---1-----------------|-2---------------|----------------------|
e---------------------|-----------------|----------------------|

and if youve seen me on the outside

e-----------0---------|---------0-------|-0h2--------2---------|
b-----3-------3-------|---3-------3-----|-----3--------3-------|
g-------0-------0-----|-----0-------0---|-------2--------2-----|
d---------3-------3---|-------0-------0-|---------0--------0---|
a---1-----------------|-2---------------|----------------------|
e---------------------|-----------------|----------------------|

you would have bearly seen me breathe

verse 2 gtr 1+2 together

gtr 1 slash
e----------------------|-------------------|-------------------|
b----------------------|-------------------|-------------------|
g----------------------|-------------------|-------------------|
d---4-4-4-4-4-4-4-4----|-------------------|---2-2-2-2-2-2-2-2-|
a---5-5-5-5-5-5-5-5----|---1-1-1-1-1-1-1-1-|---3-3-3-3-3-3-3-3-|
e---5-5-5-5-5-5-5-5----|---1-1-1-1-1-1-1-1-|---3-3-3-3-3-3-3-3-|

gtr 2 dave kushner

e-----------------------|-------------------|-------------------|
b---------3-------------|--------5----------|---------7---------|
g-----------------------|-------------------|-------------------|
d------3-----3----------|-----5-----5-------|------7------------|
a---1-------------------|---3---------------|---5---------------|
e-----------------------|-------------------|-------------------|

funny right here i find myself inside a paper cup

gtr 1
e----------------------|-------------------|-------------------|
b----------------------|-------------------|-------------------|
g----------------------|-------------------|-------------------|
d---4-4-4-4-4-4-4-4----|-------------------|---2-2-2-2-2-2-2-2-|
a---5-5-5-5-5-5-5-5----|---1-1-1-1-1-1-1-1-|---3-3-3-3-3-3-3-3-|
e---5-5-5-5-5-5-5-5----|---1-1-1-1-1-1-1-1-|---3-3-3-3-3-3-3-3-|

gtr 2

e-----------------------|-------------------|-------------------|
b---------3-------------|--------5----------|---------7---------|
g-----------------------|-------------------|-------------------|
d------3-----3----------|-----5-----5-------|------7------------|
a---1-------------------|---3---------------|---5---------------|
e-----------------------|-------------------|-------------------|

without a warning or a reason into treason with no answer
   Bb          G              Bb             G              D
e--1-----------3--------------1--------------3--------------3--|
b--1-----------3--------------1--------------3--------------2--|
g--3-----------0--------------3--------------0--------------3--|
d--3-----------0--------------3--------------0--------------0--|
a--1-----------2--------------1--------------2--------------0--|
e--1-----------3--------------1--------------3--------------0--|

the guitar solo uses the chorus powerchords, with slashs fantastic solo
playing over it

e----------------------------------------------------------------|
b----------------------------------------------------------------|
g----------------------------------------------------------------|
d---------------------------------2-4-5-4h5h7-4h5h7-4h5---4h5h7--|
a------------2-3-2h3h5--2-3-2h3h5-----------------------7--------|
e-2h3h5-2h3h5---5----------5-------------------------------------|

e-------------------------------5h7h8h5-7h8-----13-----12h10-10---|
b----------------5h6h5----5h7h8------------/15-----------------10-|
g-4h5h----4h5h7--------8------------------------------------------|
d-----7-----------------------------------------------------------|
a-----------------------------------------------------------------|
e-----------------------------------------------------------------|

e-13^---13--13h12--12-----------14----------12^-12-10-12-10----10-|
b---------------------10------------------------------------13----|
g------------------------12/14------------------------------------|
d-----------------------------------------------------------------|
a-----------------------------------------------------------------|
e-----------------------------------------------------------------|

e--------------------------------------------------------10----12-|
b-/15\-11^r-11-11-----------------------8/10-10-10-10/12----12----|
g-----------------12^r-12^r-12^r-12-9-11--------------------------|
d-----------------------------------------------------------------|
a-----------------------------------------------------------------|
e-----------------------------------------------------------------|

e-12--10-12-10----10-----------------18---17-17-17--15-15----18^-|
b--------------13----13^~~~~~~-15-15----------------------15-----|
g----------------------------------------------------------------|
d----------------------------------------------------------------|
a----------------------------------------------------------------|
e----------------------------------------------------------------|

e-18-18p17-17p15-14h15-15^r-------17^^--17---17^^--17----20^--20^~~-|
b---------------------------15-15----------15---------15------------|
g-------------------------------------------------------------------|
d-------------------------------------------------------------------|
a-------------------------------------------------------------------|
e-------------------------------------------------------------------|

e-17--20-----20-----------------------------------------------------|
b-------20^------20^r-20^r-20^r-20^r-20^r-19-20-19^r-19^r-19^r-19---|r\
g-------------------------------------------------------------------|
d-------------------------------------------------------------------|
a-------------------------------------------------------------------|
e-------------------------------------------------------------------|


verse 3

e-----------2--------------0----------2----|
b------3------------3-------------3--------|
g--------------0--------0------------------|
d------------------------------------------|
a------------------------------------------|
e------------------------------------------|

i broke through the ice, she wont be coming back again. its been a year and a night

outro chorus


and thats it guys, i hope this tab comes into good use and if you do use it could you 
email me to tell me if its a good tab or not

thank you

            
            
Suggest correction
Creating personal tab
Creating personal tab
You can edit any tab online and save it as your Personal.

You can edit, replace or remove any tab part or add personal notes – all changes will be seen only by you.

Personal tabs can be accessed anytime from any device, even offline.
Learn more »
comments
print report bad tab
8 comments total. Showing first comments.
0 reply
Woolly 81 Aug 17, 2007 03:43 AM

brilliant tab. 100 % accurate. How you got the first bit of the solo i have no idea but gr8 job anyway!

-1 reply
god of iceland 60 Aug 09, 2008 08:12 AM

intro isnt right and lol what you said in the end, we wont use it if its bad

0 reply
god of iceland 60 Aug 09, 2008 08:44 AM

and the intro chords are
4-5-0
5-5-2
5-6-3

guest
You may want to rate the tab now too:
select rating
Wanna post a correction for this tab? Suggest correction