Oops, an error
Loading. Please wait.

The Family Tree chords

by Venice
1,042 views 15 this week
1 commentread comment
1 2 3 4 5
x 5
add to favorites
×
Save as Personal and add changes to this tab that will be seen only by you. Learn more ›
×
You can save this tab as Personal to edit and correct it or add notes. All changes will be seen only by you. Learn more »
launch autoscroll
font size
0
reset
transpose
0
reset
display chords
guitar tuner
edit
Autoscroll
slow
fast
+/-
esc
set tempo
stop
Strumming
There is no strumming pattern for this song yet. and get +5 IQ
[Intro]

e|--4--2h4p2--0--------0-----------------------------0-----------------------------------------------|
B|---------------0--4-----0-----2--0--0-----0-----4-----2--0--0--------0-----------------------------|
G|------------------------------------------------------------------------2--1h2p1-----------------1-|
D|---------------------------2-----------2-----2------------------------------------4--2--2-----2----|
A|------------------------------0-----------------0-----------------2-----2------------------2-------|
E|--0---------------4-----------------------4-----------------4--0------------------------0----------|


[Verse]

E               G#m         A             E
Branches in the wind, still standin’ here together.
A                 E                  F#         B
One more storm to weather, we’ll get through it yet.
E                 G#m           A          E
So we’re gathered here, holdin’ on to each other.
   A         E       B       A     E
To let go of another one, we won’t forget.


[Chorus]

          C#m       B     A          E
Now as we say goodbye, to one of our own.
A         E                 F#   B
We may be lonely, but we’re not alone.
           C#m         B             A          E
Though the leaves will fall, and the tears will flow.
F#m           B             C#m B F#m                  B      E
May it always comfort us to know, the family tree will always grow.


[Insrtumental]

e|--4--2h4p2--0--------0-----------------------------0-----------------------------------------------|
B|---------------0--4-----0-----2--0--0-----0-----4-----2--0--0--------0-----------------------------|
G|------------------------------------------------------------------------2--1h2p1-----------------1-|
D|---------------------------2-----------2-----2------------------------------------4--2--2-----2----|
A|------------------------------0-----------------0-----------------2------------------------2-------|
E|--0---------------4-----------------------4-----------------4--0--------2---------------0----------|


[Verse]

E              G#m  A         E
Father down to son, mother to daughter,
A            E             F#      B
Thicker than water, we are made of this.
E                 G#m          A       E
From the earth we rise, to the earth returnin’.
A                   E      B         A          E
We’ll keep a candle burnin’, for the ones we’ll miss.


[Chorus]
          C#m       B     A          E
Now as we say goodbye, to one of our own.
A         E                 F#   B
We may be lonely, but we’re not alone.
           C#m         B             A          E
Though the leaves will fall, and the tears will flow.
F#m           B             C#m B F#m                  B      E
May it always comfort us to know, the family tree will always grow.


[Outro]

e|--4--2h4p2--0--------0-----------------------------0-----------------------------------------------|
B|---------------0--4-----0-----2--0--0-----0-----4-----2--0--0--------0-----------------------------|
G|------------------------------------------------------------------------2--1h2p1-----------------1-|
D|---------------------------2-----------2-----2------------------------------------4--2--2-----2----|
A|------------------------------0-----------------0-----------------2------------------------2-------|
E|--0---------------4-----------------------4-----------------4--0--------2---------------0----------|




************************************


| h   hammer-on
| p   pull-off


************************************

Suggest correction
Creating personal tab
Creating personal tab
You can edit any tab online and save it as your Personal.

You can edit, replace or remove any tab part or add personal notes – all changes will be seen only by you.

Personal tabs can be accessed anytime from any device, even offline.
Learn more »
comments
print report bad tab
1 comment total.
0 reply
michaelthebest1 10 May 19, 2017 01:17 PM

Thanks for the tab!

guest
You may want to rate the tab now too:
select rating
Wanna post a correction for this tab? Suggest correction