Oops, an error
Loading. Please wait.

Open Your Eyes tab

by Ventive
63 views 1 this week
no commentswrite comment
1 2 3 4 5
3 more votes to show rating
add to favorites
×
Save as Personal and add changes to this tab that will be seen only by you. Learn more ›
×
You can save this tab as Personal to edit and correct it or add notes. All changes will be seen only by you. Learn more »
launch autoscroll
font size
0
reset
how to read this tab
guitar tuner
edit
Autoscroll
slow
fast
+/-
esc
set tempo
stop
Author/Artist: Ventive
Title: Open Your Eyes
Album: Ventive Vol 1
Transcribed by: Justin Wells

This is the Rhythm Guitar portion of Open Your Eyes.  As this was transcribed primarily 
for the

advantage of one of our bandmates, I have not included the lead riffs.  If this is 
desired, please

comment.

Tuning: Drop D

Intro
E------------------------------------------------------------------------------|
B------------------------------------------------------------------------------|
G------------------------------------------------------------------------------|
D-1-1---1-1---1-1---1-1---1-1-3------------------------------------------------|
A-1-1---1-1---1-1---1-1---1-1-3------------------------------------------------|
D-1-1---1-1---1-1---1-1---1-1-3------------------------------------------------|


Pre-Verse (Repeat Twice)
E------------------------------------------------------------------------------|
B------------------------------------------------------------------------------|
G------------------------------------------------------------------------------|
D-0-0---0-0---0-0---0-0---0-1-3-1---0-0---0-0---0-0---0-0----------------------|
A-0-0---0-0---0-0---0-0---0-1-3-1---0-0---0-0---0-0---0-0--5-4-3---------------|
D-0-0---0-0---0-0---0-0---0-1-3-1---0-0---0-0---0-0---0-0----------------------|

E------------------------------------------------------------------------------|
B------------------------------------------------------------------------------|
G----------------------------------/7--/3--------------------------------------|
D-0-0---0-0---0-0---0-0---0-1-3-1--/7--/1--------------------------------------|
A-0-0---0-0---0-0---0-0---0-1-3-1--/5--/1--------------------------------------|
D-0-0---0-0---0-0---0-0---0-1-3-1--/5--/1--------------------------------------|


Verse (Repeat Twice)
E------------------------------------------------------------------------------|
B------------------------------------------------------------------------------|
G------------------------------------------------------------------------------|
D-0-0---0-0---0-0---0-0---0-1-3-1---0-0---0-0---0-0---0-0----------------------|
A-0-0---0-0---0-0---0-0---0-1-3-1---0-0---0-0---0-0---0-0-5-4-3----------------|
D-0-0---0-0---0-0---0-0---0-1-3-1---0-0---0-0---0-0---0-0----------------------|
  x x   x x   x x   x x   x x x x   x x   x x   x x   x x

E------------------------------------------------------------------------------|
B------------------------------------------------------------------------------|
G----------------------------------/7--/3--------------------------------------|
D-0-0---0-0---0-0---0-0---0-1-3-1--/7--/1--------------------------------------|
A-0-0---0-0---0-0---0-0---0-1-3-1--/5--/1--------------------------------------|
D-0-0---0-0---0-0---0-0---0-1-3-1--/5--/1--------------------------------------|
  x x   x x   x x   x x   x x x x

Chorus
E------------------------------------------------------------------------------|
B------------------------------------------------------------------------------|
G-/7--/3---/7--/3---/7--/3---/7------------------------------------------------|
D-/7--/1---/7--/1---/7--/1---/7--3-3-3-3-3-3-3-3---1-0-1-0-1-0-1-0-0-1-3-1-----|
A-/5--/1---/5--/1---/5--/1---/5--3-3-3-3-3-3-3-3---1-0-1-0-1-0-1-0-0-1-3-1-----|
D-/5--/1---/5--/1---/5--/1---/5--3-3-3-3-3-3-3-3---1-0-1-0-1-0-1-0-0-1-3-1-----|


Pre-Verse
E------------------------------------------------------------------------------|
B------------------------------------------------------------------------------|
G------------------------------------------------------------------------------|
D-0-0---0-0---0-0---0-0---0-1-3-1---0-0---0-0---0-0---0-0----------------------|
A-0-0---0-0---0-0---0-0---0-1-3-1---0-0---0-0---0-0---0-0--5-4-3---------------|
D-0-0---0-0---0-0---0-0---0-1-3-1---0-0---0-0---0-0---0-0----------------------|

E------------------------------------------------------------------------------|
B------------------------------------------------------------------------------|
G----------------------------------/7--/3--------------------------------------|
D-0-0---0-0---0-0---0-0---0-1-3-1--/7--/1--------------------------------------|
A-0-0---0-0---0-0---0-0---0-1-3-1--/5--/1--------------------------------------|
D-0-0---0-0---0-0---0-0---0-1-3-1--/5--/1--------------------------------------|

2nd Verse (Repeat Twice)
E------------------------------------------------------------------------------|
B------------------------------------------------------------------------------|
G------------------------------------------------------------------------------|
D-0-0---0-0---0-0---0-0---0-1-3-1---0-0---0-0---0-0---0-0----------------------|
A-0-0---0-0---0-0---0-0---0-1-3-1---0-0---0-0---0-0---0-0-5-4-3----------------|
D-0-0---0-0---0-0---0-0---0-1-3-1---0-0---0-0---0-0---0-0----------------------|
  x x   x x   x x   x x   x x x x   x x   x x   x x   x x

E------------------------------------------------------------------------------|
B------------------------------------------------------------------------------|
G----------------------------------/7--/3--------------------------------------|
D-0-0---0-0---0-0---0-0---0-1-3-1--/7--/1--------------------------------------|
A-0-0---0-0---0-0---0-0---0-1-3-1--/5--/1--------------------------------------|
D-0-0---0-0---0-0---0-0---0-1-3-1--/5--/1--------------------------------------|
  x x   x x   x x   x x   x x x x

LEAD
E------------------------------------------------------------------------------|
B------------------------------------------------------------------------------|
G-/7--/3---/7--/3---/7--/3---/7------------------------------------------------|
D-/7--/1---/7--/1---/7--/1---/7--3-3-3-3-3-3-3-3---1-0-1-0-1-0-1-0-0-1-3-1-----|
A-/5--/1---/5--/1---/5--/1---/5--3-3-3-3-3-3-3-3---1-0-1-0-1-0-1-0-0-1-3-1-----|
D-/5--/1---/5--/1---/5--/1---/5--3-3-3-3-3-3-3-3---1-0-1-0-1-0-1-0-0-1-3-1-----|


Pre-Verse (play Once)
E------------------------------------------------------------------------------|
B------------------------------------------------------------------------------|
G------------------------------------------------------------------------------|
D-0-0---0-0---0-0---0-0---0-1-3-1---0-0---0-0---0-0---0-0----------------------|
A-0-0---0-0---0-0---0-0---0-1-3-1---0-0---0-0---0-0---0-0--5-4-3---------------|
D-0-0---0-0---0-0---0-0---0-1-3-1---0-0---0-0---0-0---0-0----------------------|

E------------------------------------------------------------------------------|
B------------------------------------------------------------------------------|
G----------------------------------/7--/3--------------------------------------|
D-0-0---0-0---0-0---0-0---0-1-3-1--/7--/1--------------------------------------|
A-0-0---0-0---0-0---0-0---0-1-3-1--/5--/1--------------------------------------|
D-0-0---0-0---0-0---0-0---0-1-3-1--/5--/1--------------------------------------|

3rd Verse (Play once)
E------------------------------------------------------------------------------|
B------------------------------------------------------------------------------|
G------------------------------------------------------------------------------|
D-0-0---0-0---0-0---0-0---0-1-3-1---0-0---0-0---0-0---0-0----------------------|
A-0-0---0-0---0-0---0-0---0-1-3-1---0-0---0-0---0-0---0-0-5-4-3----------------|
D-0-0---0-0---0-0---0-0---0-1-3-1---0-0---0-0---0-0---0-0----------------------|
  x x   x x   x x   x x   x x x x   x x   x x   x x   x x

E------------------------------------------------------------------------------|
B------------------------------------------------------------------------------|
G----------------------------------/7--/3--------------------------------------|
D-0-0---0-0---0-0---0-0---0-1-3-1--/7--/1--------------------------------------|
A-0-0---0-0---0-0---0-0---0-1-3-1--/5--/1--------------------------------------|
D-0-0---0-0---0-0---0-0---0-1-3-1--/5--/1--------------------------------------|
  x x   x x   x x   x x   x x x x

Final Chorus
E------------------------------------------------------------------------------|
B------------------------------------------------------------------------------|
G-/7--/3---/7--/3---/7--/3---/7------------------------------------------------|
D-/7--/1---/7--/1---/7--/1---/7--3-3-3-3-3-3-3-3---1-0-1-0-1-0-1-0-0-1-3-1-----|
A-/5--/1---/5--/1---/5--/1---/5--3-3-3-3-3-3-3-3---1-0-1-0-1-0-1-0-0-1-3-1-----|
D-/5--/1---/5--/1---/5--/1---/5--3-3-3-3-3-3-3-3---1-0-1-0-1-0-1-0-0-1-3-1-----|

Outro (Repeat Six Times)
E------------------------------------------------------------------------------|
B------------------------------------------------------------------------------|
G------------------------------------------------------------------------------|
D-0-0---0-0---0-0---0-0---0-1-3-1---0-0---0-0---0-0---0-0----------------------|
A-0-0---0-0---0-0---0-0---0-1-3-1---0-0---0-0---0-0---0-0--5-4-3---------------|
D-0-0---0-0---0-0---0-0---0-1-3-1---0-0---0-0---0-0---0-0----------------------|

Ending
E------------------------------------------------------------------------------|
B------------------------------------------------------------------------------|
G------------------------------------------------------------------------------|
D-1-0---1-0---1-0---1-0---0-1-3-1--0-------------------------------------------|
A-1-0---1-0---1-0---1-0---0-1-3-1--0-------------------------------------------|
D-1-0---1-0---1-0---1-0---0-1-3-1--0-------------------------------------------|

For tracks and band info:
http://www.thebandventive.com
http://www.soundcloud.com/thebandventive
http://www.facebook.com/thebandventive
Suggest correction
Creating personal tab
Creating personal tab
You can edit any tab online and save it as your Personal.

You can edit, replace or remove any tab part or add personal notes – all changes will be seen only by you.

Personal tabs can be accessed anytime from any device, even offline.
Learn more »
Give kudos to tab author, rate the tab!
1 2 3 4 5
comments
print report bad tab
guest
You may want to rate the tab now too:
select rating
Wanna post a correction for this tab? Suggest correction