Oops, an error
Loading. Please wait.

Wipe Out Tab

version 2
version 2

Whole song

5,437 views 3 this week
4 commentsread comments
1 2 3 4 5
x 8
add to favorites
launch autoscroll
font size
0
reset
how to read this tab
guitar tuner
Autoscroll
slow
fast
+/-
esc
set tempo
stop
Help us to improve Ultimate-Guitar.com Take our survey!
×
Author
Here's my interpretation of wipeout(not to be confused with the other
ibanez person that posted tabs for wipeout) it's pretty easy:

e--------------------------------
b0-3-4-5-5-5-3-0-0-3-4-5-5-5-3-0-
g--------------------------------
d--------------------------------
a--------------------------------
e--------------------------------repeat then:

e0-3-4-5-5-5-3-0-0-3-4-5-5-5-3-0-
b--------------------------------
g--------------------------------
d--------------------------------
a--------------------------------
e-------------------------------- then play 1st part again then play:

e0-3-5--7-7-7-5-0-0-0-0-----------------------------------------
b-----------------------7-7-7-5-0-0--3-4-5-5-5-3-0-3-0-3-0-3-0-0
g---------------------------------------------------------------
d---------------------------------------------------------------
a---------------------------------------------------------------
e---------------------------------------------------------------

i kinda faked the last couple of notes but you get the idea, after
the last few notes just start over again from the beginning
Suggest correction
comments
print report bad tab
4 comments total. Showing first comments.
0 reply
hillyardca 89 Feb 09, 2006 10:42 AM

Nice job, the ending of the song, if you like, can go like this
-0-3-5-7-7-5---7--5-5-5-3-0--------------X-X-X-X---
-------------7--------------0-3-4-5-pauseX-X-X-X---
-----------------------------------------4-4-4-4---
-----------------------------------------4-4-4-4---
-----------------------------------------2-2-2-2---
and back to the beginning.
hillyardca

-1 reply
pinkvelocity 16 Dec 22, 2006 06:22 PM

better than the other tab but dont get lazy: "faked the last few notes" little things screw up a tab completley

0 reply
InTiMiDaToR 10 Jan 06, 2008 12:17 PM

i think its tuned half a step down

guest
You may want to rate the tab now too:
select rating
Wanna post a correction for this tab? Suggest correction