Oops, an error
Loading. Please wait.

Apache Tab

version 3
version 3
23,191 views 45 this week
no commentswrite comment
1 2 3 4 5
excellent!
x 6
add to favorites
launch autoscroll
font size
0
reset
how to read this tab
guitar tuner
Tab Pro tools
  • play this tab
  • loop segment
  • change instrument
  • show fretboard
  • metronome
×
Best way to learn
"Apache"
Autoscroll
slow
fast
+/-
esc
set tempo
stop
Contributor
APACHE


The Ventures


INTRO


   Am                                D
e|-------------8---10b-------------|-----------------17--15----------|
B|---------10----------------------|-------------13----------17------|
G|---------------------------------|---------14----------------------|
D|---------------------------------|---------------------------------|
A|---------------------------------|---------------------------------|
E|---------------------------------|---------------------------------|



   Am                                D
e|-------------8---10b-------------|-----------------17--15----------|
B|---------10----------------------|-------------13----------17------|
G|---------------------------------|---------14----------------------|
D|---------------------------------|---------------------------------|
A|---------------------------------|---------------------------------|
E|---------------------------------|---------------------------------|


VERSE


   Am                                D
e|---------------------------------|---------------------------------|
B|---------------------------------|---------------------------------|
G|---------------------------------|---------------------------------|
D|-7---------------2---/---7-------|---------------------------------|
A|---------------------------------|-9---------------7-------5-------|
E|---------------------------------|---------------------------------|



   Am
e|---------------------------------|---------------------------------|
B|---------------------------------|---------------------------------|
G|---------------------------------|---------------------------------|
D|---------------------------------|---------------------------------|
A|-7-------------------------------|-------------------------2------/|
E|---------------------------------|---------------------------------|

e|-------------8---10b-------------|---------10--8-------------------|
B|---------------------------------|-----10----------10--------------|
G|---------------------------------|---------------------------------|
D|---------------------------------|---------------------------------|
A|---------------------------------|---------------------------------|
E|---------------------------------|---------------------------------|



   Am                                D
e|---------------------------------|---------------------------------|
B|---------------------------------|---------------------------------|
G|---------------------------------|---------------------------------|
D|-7---------------2---/---7-------|---------------------------------|
A|---------------------------------|-9---------------7-------5-------|
E|---------------------------------|---------------------------------|



   Am
e|---------------------------------|---------------------------------|
B|---------------------------------|---------------------------------|
G|---------------------------------|---------------------------------|
D|---------------------------------|-------------------------7-------|
A|-7-------------------------------|---------------------------------|
E|---------------------------------|---------------------------------|

e|-------------8---10b-------------|---------10--8-------------------|
B|---------------------------------|-----10----------10--------------|
G|---------------------------------|---------------------------------|
D|---------------------------------|---------------------------------|
A|---------------------------------|---------------------------------|
E|---------------------------------|---------------------------------|



   Dm                                G
e|---------------------------------|---------------------------------|
B|---------------------------------|---------------------------------|
G|-7-----------------------7-------|---------------------------------|
D|-----------------7---------------|-9---------------7-------5-------|
A|---------------------------------|---------------------------------|
E|---------------------------------|---------------------------------|



   Dm
e|---------------------------------|---------------------------------|
B|---------------------------------|---------------------------------|
G|---------------------------------|---------------------------------|
D|-7-------------------------------|-------------------------2------/|
A|---------------------------------|---------------------------------|
E|---------------------------------|---------------------------------|

e|-------------13--15b-------------|---------15--13------------------|
B|---------15----------------------|-----15----------15--------------|
G|---------------------------------|---------------------------------|
D|---------------------------------|---------------------------------|
A|---------------------------------|---------------------------------|
E|---------------------------------|---------------------------------|



   Am                                D
e|---------------------------------|---------------------------------|
B|---------------------------------|---------------------------------|
G|---------------------------------|---------------------------------|
D|-7---------------2---/---7-------|---------------------------------|
A|---------------------------------|-9---------------7-------5-------|
E|---------------------------------|---------------------------------|



   Am
e|---------------------------------|---------------------------------|
B|---------------------------------|---------------------------------|
G|---------------------------------|---------------------------------|
D|---------------------------------|---------------------------------|
A|-7-------------------------------|---------------------------------|
E|---------------------------------|---------------------------------|

e|-------------8---10b-------------|---------10--8-------------------|
B|--------(10)---------------------|-----10----------10--------------|
G|---------------------------------|---------------------------------|
D|---------------------------------|---------------------------------|
A|---------------------------------|---------------------------------|
E|---------------------------------|---------------------------------|



   F
e|---------------------------------|---------------------------------|
B|---------------------------------|---------------------------------|
G|---------------------------------|---------------------------------|
D|-----3-3-3-----------3-3-3-------|-----3-3-3-----------3-3-3---3---|
A|-3-----------3-3-3-----------3-3-|-3-----------3-3-3---------------|
E|---------------------------------|---------------------------------|



   Am
e|---------------------------------|---------------------------------|
B|---------------------------------|---------------------------------|
G|---------------------------------|---------------------------------|
D|-2-------------------------------|---------------------------------|
A|-----------------0---------------|---------------------------------|
E|---------------------------------|---------------------------------|



   F
e|---------------------------------|---------------------------------|
B|---------------------------------|---------------------------------|
G|---------------------------------|---------------------------------|
D|-----3-3-3-----------3-3-3-------|-----3-3-3-----------3-3-3---3---|
A|-3-----------3-3-3-----------3-3-|-3-----------3-3-3---------------|
E|---------------------------------|---------------------------------|



   Am
e|---------------------------------|---------------------------------|
B|---------------------------------|---------------------------------|
G|---------------------------------|---------------------------------|
D|-2-------------------------------|---------------------------------|
A|-----------------0---------------|---------------------------------|
E|---------------------------------|---------------------------------|


BRIDGE


   F                                 G
e|---------------------------------|---------------------------------|
B|-------------------------1-------|-------------------------3-------|
G|-----------------2---------------|-4---------------5---------------|
D|---------3-----------------------|---------------------------------|
A|---------------------------------|---------------------------------|
E|---------------------------------|---------------------------------|



   Am
e|---------------------------------|---------------------------------|
B|-5----3----1---------------------|---------------------------------|
G|-----------------2---------------|---------------------------------|
D|---------------------------------|---------------------------------|
A|---------------------------------|---------------------------------|
E|---------------------------------|---------------------------------|

e|---------------------------------|-12---10---8---------------------|
B|---------------------------------|-----------------10--------------|
G|---------------------------------|---------------------------------|
D|---------------------------------|---------------------------------|
A|---------------------------------|---------------------------------|
E|---------------------------------|---------------------------------|



   F                                 G
e|---------------------------------|---------------------------------|
B|-------------------------1-------|-------------------------3-------|
G|-----------------2---------------|-4---------------5---------------|
D|---------3-----------------------|---------------------------------|
A|---------------------------------|---------------------------------|
E|---------------------------------|---------------------------------|



   C
e|---------------------------------|---------------------------------|
B|---------------------------------|---------------------------------|
G|---------------------------------|---------------------------------|
D|-5-------------------------------|---------------------------------|
A|---------------------------------|---------------------------------|
E|---------------------------------|---------------------------------|

e|-----------------12---10---8-----|-6----5----3---------------------|
B|---------------------------------|-----------------3----1----------|
G|---------------------------------|---------------------------3-----|
D|---------------------------------|---------------------------------|
A|---------------------------------|---------------------------------|
E|---------------------------------|---------------------------------|



   F                                 G
e|---------------------------------|---------------------------------|
B|-------------------------1-------|-------------------------3-------|
G|-----------------2---------------|-4---------------5---------------|
D|---------3-----------------------|---------------------------------|
A|---------------------------------|---------------------------------|
E|---------------------------------|---------------------------------|

e|---------------------------------|---------------------------------|
B|---------------------------------|---------------------------------|
G|-2-------------------------------|---------------------------------|
D|---------------------------------|---------------------------------|
A|---------------------------------|---------------------------------|
E|---------------------------------|---------------------------------|



   Am
e|---------------------------------|---------------------------------|
B|-5----3----1---------------------|---------------------------------|
G|-----------------2---------------|---------------------------------|
D|---------------------------------|---------------------------------|
A|---------------------------------|---------------------------------|
E|---------------------------------|---------------------------------|

e|---------------------------------|-12---10---8---------------------|
B|---------------------------------|-----------------10--------------|
G|---------------------------------|---------------------------------|
D|---------------------------------|---------------------------------|
A|---------------------------------|---------------------------------|
E|---------------------------------|---------------------------------|



   F
e|---------------------------------|---------------------------------|
B|---------------------------------|---------------------------------|
G|---------------------------------|---------------------------------|
D|-----3-3-3-----------3-3-3-------|-----3-3-3-----------3-3-3---3---|
A|-3-----------3-3-3-----------3-3-|-3-----------3-3-3---------------|
E|---------------------------------|---------------------------------|



   Am
e|---------------------------------|---------------------------------|
B|---------------------------------|---------------------------------|
G|---------------------------------|---------------------------------|
D|-2-------------------------------|---------------------------------|
A|-----------------0---------------|---------------------------------|
E|---------------------------------|---------------------------------|



   F
e|---------------------------------|---------------------------------|
B|---------------------------------|---------------------------------|
G|---------------------------------|---------------------------------|
D|-----3-3-3-----------3-3-3-------|-----3-3-3-----------3-3-3---3---|
A|-3-----------3-3-3-----------3-3-|-3-----------3-3-3---------------|
E|---------------------------------|---------------------------------|



   Am
e|---------------------------------|---------------------------------|
B|---------------------------------|-------------------------17------|
G|---------------------------------|---------------------------------|
D|-2-------------------------------|---------------------------------|
A|-----------------0---------------|---------------------------------|
E|---------------------------------|---------------------------------|


VERSE


   Am                                D
e|-1717171717171717--------17171717|---------------------------------|
B|-----------------17171717--------|-19191919191919191717171715151515|
G|---------------------------------|---------------------------------|
D|---------------------------------|---------------------------------|
A|---------------------------------|---------------------------------|
E|---------------------------------|---------------------------------|



   Am
e|---------------------------------|---------------------------------|
B|-17171717171717171717171717171717|-17171717171717171717171717171717|
G|---------------------------------|---------------------------------|
D|---------------------------------|---------------------------------|
A|---------------------------------|---------------------------------|
E|---------------------------------|---------------------------------|



   Am                                D
e|-1717171717171717--------17171717|---------------------------------|
B|-----------------17171717--------|-19191919191919191717171715151515|
G|---------------------------------|---------------------------------|
D|---------------------------------|---------------------------------|
A|---------------------------------|---------------------------------|
E|---------------------------------|---------------------------------|



   Am
e|---------------------------------|---------------------------------|
B|-17171717171717171717171717171717|-1717171717171717----------------|
G|---------------------------------|---------------------------------|
D|---------------------------------|-------------------------7-------|
A|---------------------------------|---------------------------------|
E|---------------------------------|---------------------------------|



   Dm                                G
e|---------------------------------|---------------------------------|
B|---------------------------------|---------------------------------|
G|-7-----------------------7-------|---------------------------------|
D|-----------------7---------------|-9---------------7-------5-------|
A|---------------------------------|---------------------------------|
E|---------------------------------|---------------------------------|



   Dm
e|---------------------------------|---------------------------------|
B|---------------------------------|-------------------------17------|
G|---------------------------------|---------------------------------|
D|-7-------------------------------|---------------------------------|
A|---------------------------------|---------------------------------|
E|---------------------------------|---------------------------------|



   Am                                D
e|-1717171717171717--------17171717|---------------------------------|
B|-----------------17171717--------|-19191919191919191717171715151515|
G|---------------------------------|---------------------------------|
D|---------------------------------|---------------------------------|
A|---------------------------------|---------------------------------|
E|---------------------------------|---------------------------------|



   Am
e|---------------------------------|---------------------------------|
B|-17171717171717171717171717171717|-1717171717171717----------------|
G|---------------------------------|---------------------------------|
D|---------------------------------|---------------------------------|
A|---------------------------------|---------------------------------|
E|---------------------------------|---------------------------------|


BRIDGE


   F                                 G
e|---------------------------------|---------------------------------|
B|-------------------------1-------|-------------------------3-------|
G|-----------------2---------------|-4---------------5---------------|
D|---------3-----------------------|---------------------------------|
A|---------------------------------|---------------------------------|
E|---------------------------------|---------------------------------|



   Am
e|---------------------------------|---------------------------------|
B|-5----3----1---------------------|---------------------------------|
G|-----------------2---------------|---------------------------------|
D|---------------------------------|---------------------------------|
A|---------------------------------|---------------------------------|
E|---------------------------------|---------------------------------|

e|---------------------------------|-12---10---8---------------------|
B|---------------------------------|-----------------10--------------|
G|---------------------------------|---------------------------------|
D|---------------------------------|---------------------------------|
A|---------------------------------|---------------------------------|
E|---------------------------------|---------------------------------|



   F                                 G
e|---------------------------------|---------------------------------|
B|-------------------------1-------|-------------------------3-------|
G|-----------------2---------------|-4---------------5---------------|
D|---------3-----------------------|---------------------------------|
A|---------------------------------|---------------------------------|
E|---------------------------------|---------------------------------|



   C
e|---------------------------------|---------------------------------|
B|---------------------------------|---------------------------------|
G|---------------------------------|---------------------------------|
D|-5-------------------------------|---------------------------------|
A|---------------------------------|---------------------------------|
E|---------------------------------|---------------------------------|

e|-----------------12---10---8-----|-6----5----3---------------------|
B|---------------------------------|-----------------3----1----------|
G|---------------------------------|---------------------------3-----|
D|---------------------------------|---------------------------------|
A|---------------------------------|---------------------------------|
E|---------------------------------|---------------------------------|



   F                                 G
e|---------------------------------|---------------------------------|
B|-------------------------1-------|-------------------------3-------|
G|-----------------2---------------|-4---------------5---------------|
D|---------3-----------------------|---------------------------------|
A|---------------------------------|---------------------------------|
E|---------------------------------|---------------------------------|

e|---------------------------------|---------------------------------|
B|---------------------------------|---------------------------------|
G|-2-------------------------------|---------------------------------|
D|---------------------------------|---------------------------------|
A|---------------------------------|---------------------------------|
E|---------------------------------|---------------------------------|



   Am
e|---------------------------------|---------------------------------|
B|-5----3----1---------------------|---------------------------------|
G|-----------------2---------------|---------------------------------|
D|---------------------------------|---------------------------------|
A|---------------------------------|---------------------------------|
E|---------------------------------|---------------------------------|

e|---------------------------------|-12---10---8---------------------|
B|---------------------------------|-----------------10--------------|
G|---------------------------------|---------------------------------|
D|---------------------------------|---------------------------------|
A|---------------------------------|---------------------------------|
E|---------------------------------|---------------------------------|



   F
e|---------------------------------|---------------------------------|
B|---------------------------------|---------------------------------|
G|---------------------------------|---------------------------------|
D|-----3-3-3-----------3-3-3-------|-----3-3-3-----------3-3-3---3---|
A|-3-----------3-3-3-----------3-3-|-3-----------3-3-3---------------|
E|---------------------------------|---------------------------------|



   Am
e|---------------------------------|---------------------------------|
B|---------------------------------|---------------------------------|
G|---------------------------------|---------------------------------|
D|-2-------------------------------|---------------------------------|
A|-----------------0---------------|---------------------------------|
E|---------------------------------|---------------------------------|



   F
e|---------------------------------|---------------------------------|
B|---------------------------------|---------------------------------|
G|---------------------------------|---------------------------------|
D|-----3-3-3-----------3-3-3-------|-----3-3-3-----------3-3-3---3---|
A|-3-----------3-3-3-----------3-3-|-3-----------3-3-3---------------|
E|---------------------------------|---------------------------------|



   Am
e|---------------------------------|---------------------------------|
B|---------------------------------|---------------------------------|
G|---------------------------------|---------------------------------|
D|-2-------------------------------|---------------------------------|
A|-----------------0---------------|---------------------------------|
E|---------------------------------|---------------------------------|


OUTRO


   Am                                D
e|-------------8---10b-------------|-----------------17--15----------|
B|---------10----------------------|-------------13----------17------|
G|---------------------------------|---------14----------------------|
D|---------------------------------|---------------------------------|
A|---------------------------------|---------------------------------|
E|---------------------------------|---------------------------------|



   Am                                D
e|-------------8---10b-------------|-----------------17--15----------|
B|---------10----------------------|-------------13----------17------|
G|---------------------------------|---------14----------------------|
D|---------------------------------|---------------------------------|
A|---------------------------------|---------------------------------|
E|---------------------------------|---------------------------------|



   Am                                D
e|-------------8---10b-------------|-----------------17--15----------|
B|---------10----------------------|-------------13----------17------|
G|---------------------------------|---------14----------------------|
D|---------------------------------|---------------------------------|
A|---------------------------------|---------------------------------|
E|---------------------------------|---------------------------------|
                                                             FADE OUT
comments
print report bad tab
I want to post or [tab]
guest
You may want to rate the tab now too:
select rating
Please do not post tabs as comments. Select "correction" instead!