Oops, an error
Loading. Please wait.

Apache Tab

version 4
version 4
1,360 views 1 this week
no commentswrite comment
1 2 3 4 5
2 more votes to show rating
add to favorites
launch autoscroll
font size
0
reset
how to read this tab
guitar tuner
Autoscroll
slow
fast
+/-
esc
set tempo
stop
Help us to improve Ultimate-Guitar.com Take our survey!
×
Author
Difficulty
novice
                        The Ventures - Apache

Standard turning


Intro (x2) :

e|---------------3~5-3-0---|
B|-----1-3^----1-----------|
G|---2-------2-------------|
D|-------------------------|
A|-------------------------|
E|-------------------------|

Play the next part x2

e|----------------------|
B|----------------------|
G|----2---2-------------|
D|--2---2---2~4---2-0-2-|
A|----------------------|
E|----------------------|

x1
e|------------------------|---------------------|
B|-----3---3--------------|---------------------|
G|---2---2---2~4---2-0-2--|----2---2------------|
D|------------------------|--2---2---2~4--2-0-2-|
A|------------------------|---------------------|
E|------------------------|---------------------|

Play this next part x2

e|-------------------------|
B|-------------------------|
G|-------------------------|
D|----3---3---3---3--2-----|
A|--3---3---3---3------0---|
E|-------------------------|

x1
e|----------------------|---------------3-|
B|----1-0--1-3-5-3-1----|----2-0--1-3-5---|
G|---2----------------2-|---2-------------|
D|--3-------------------|--3--------------|
A|----------------------|-----------------|
E|----------------------|-----------------|


e|----------------------|
B|----1-0--1-3-5-3-1----|
G|---2----------------2-|
D|--3-------------------|
A|----------------------|
E|----------------------|

Play this next part x2

e|-------------------------|
B|-------------------------|
G|-------------------------|
D|----3---3---3---3--2-----|
A|--3---3---3---3------0---|
E|-------------------------|

Play the next part x2

e|----------------------|
B|----------------------|
G|----2---2-------------|
D|--2---2---2~4---2-0-2-|
A|----------------------|
E|----------------------|

x1
e|------------------------|---------------------|
B|-----3---3--------------|---------------------|
G|---2---2---2~4---2-0-2--|----2---2------------|
D|------------------------|--2---2---2~4--2-0-2-|
A|------------------------|---------------------|
E|------------------------|---------------------|

Again x2

e|----------------------|---------------3-|
B|----1-0--1-3-5-3-1----|----2-0--1-3-5---|
G|---2----------------2-|---2-------------|
D|--3-------------------|--3--------------|
A|----------------------|-----------------|
E|----------------------|-----------------|

x1
e|-------------------------|
B|-------------------------|
G|-------------------------|
D|----3---3---3---3--2-----|
A|--3---3---3---3------0---|
E|-------------------------|

Play again the intro x4
Suggest correction
Give kudos to tab author, rate the tab!
1 2 3 4 5
comments
print report bad tab
guest
You may want to rate the tab now too:
select rating
Wanna post a correction for this tab? Suggest correction