Oops, an error
Loading. Please wait.

Caravan Tab

version 1
version 1

Whole song

Interactive

21,565 views 48 this week
1 commentread comment
1 2 3 4 5
x 4
add to favorites
launch autoscroll
font size
0
reset
how to read this tab
guitar tuner
Autoscroll
slow
fast
+/-
esc
set tempo
stop
Help us to improve Ultimate-Guitar.com Take our survey!
×
Caravan

notes on this recording
This is a transcription on the version of Caravan found on their
first LP, "Walk Don't Run." It varries in many ways from the live in
Japan '65 version, namely:
#1 It has a tonality of B, the live version has a tonality of E
#2 It features slower, less agressive playing tahn Japan '65
#3 It features an intro and a clossing section that is not on Japan '65
#4 It fetures a lower octave melody section

The song arangement:
the intro guitar lines are double stops using parralell 4ths
the main theme is played twice
theme #2 is played once
then the main theme is repeated with a varriation at the end of each bar
after a four note low octave run the main theme is played an octave lower
with varriations
and finally there is an outro, which is a varraition in the intro


[Intro]
e|--12-10-7--|--\7-\7-7-5-3-0--|----------------|
B|--12-10-7--|--\7-\7-7-5-3-0--|--3---3--3---3--|
G|-----------|-----------------|----4------4----|
D|-----------|-----------------|----------------|
A|-----------|-----------------|----------------|
E|-----------|-----------------|----------------|

  main theme
e|------------------------------11-----------------|
B|--11h12p11-12--13-12----10-12--------10-10--9/10-|
G|---------------------11----------11--11-11-10/11-|
D|-------------------------------------------------|
A|-------------------------------------------------|
E|-------------------------------------------------|

e|-------------------------------------------|
B|-12-12h13-12-13--12-10----10--10-10--9/10--|
G|-----------------------11-----11-11-10/11--|
D|-------------------------------------------|
A|-------------------------------------------|
E|-------------------------------------------|

e|--------------------------|
B|-11b-10-9-8-7-6-5---3---3-|
G|----------------------4---|
D|--------------------------|
A|--------------------------|
E|--------------------------|
end of main theme

REPEAT MAIN THEME

  theme #2
e|----12----------------|----------7-----------|
B|-------14-12----------|-5-5-7-5----7-5-------|
G|-------------11-11-11-|----------------4-4-4-|
D|-14-------------------|----------------------|
A|----------------------|----------------------|
E|----------------------|----------------------|

e|-10--10-------------|---------------------------------------------------|
B|-10-----12-10-------|----------12-13p12--12-13p12--12-12-12--13-12--12/-|
G|-11-----------9-9-9-|-7-7-9-7-------------------------------------------|
D|-12-----------------|---------------------------------------------------|
A|-12-----------------|---------------------------------------------------|
E|-10-----------------|---------------------------------------------------|
end of theme #2

  main theme varriation
e|-----------------------11----|-11/14-14/11-|
B|--0/12--13-12----10-12-------|--play-------|
G|--------------11----------11-|--these------|
D|-----------------------------|--slides-----|
A|-----------------------------|--four-------|
E|-----------------------------|--times------|


e|---------------------------|-11/14-14/11-|----------------------|----------|
B|--12--13-12-13-12-10----10-|--play-------|--12-11--10-9-8-7-6-5-|-3-2-3----|
G|---------------------11----|--these------|----------------------|-------4/-|
D|---------------------------|--slides-----|----------------------|----------|
A|---------------------------|--four-------|----------------------|----------|
E|---------------------------|--times------|----------------------|----------|
end of main theme varriation

  main theme ovtave section
e|----------------------------------------|
B|----------------------------------------|
G|----------------------------------------|
D|------1-4-------1-4-------1-4-------1-4-|
A|-2--2------2--2------2--2------2--2-----|
E|----------------------------------------|

e|----------------------------|
B|----------------------------|
G|----------------------------|
D|------------1---1-1-1-1-1-1-|
A|-2--3-----2-----2-2-2-2-2-2-|
E|------2-5-----2-2-2-2-2-2-2-|

e|--------------------------------------------------|
B|--------------------------------------------3---3-|
G|----------------------------------------------4---|
D|---------------1-1-1-1-1-1------------------------|
A|-2-3-2-3-2-----2-2-2-2-2-2--2-1-0-----------------|
E|-----------5-2-2-2-2-2-2-2--------4-3-2-1-0-------|

[Outro]
e|--12-10-7--|--\7-\7-7-5-3-0--|-------------|
B|--12-10-7--|--\7-\7-7-5-3-0--|--3---3/2----|
G|-----------|-----------------|----4-0------|
D|-----------|-----------------|--repeat-----|
A|-----------|-----------------|--three------|
E|-----------|-----------------|--times------|

e|------------------|
B|------------------|
G|------------------|
D|------------------|
A|-2-1-0------------|
E|-------4-3-2-1-0--|



************************************

\=slide
h=hammer on
p=pull off
b=bend 1/2 step
B=bend full step

************************************
Suggest correction
comments
print report bad tab
1 comment total.
0 reply
MirandaShambles 50 Jan 26, 2011 10:07 PM

Don't see why this tab is rated so low. It sounds great but the intro and some parts are missing a C#

----------------------------------------
--3---3-2~----------------------------------
----4------------------------------------
----------------------------------------
----------------------------------------
----------------------------------------

guest
You may want to rate the tab now too:
select rating
Wanna post a correction for this tab? Suggest correction