Oops, an error
Loading. Please wait.

Dick Tracy Tab

2,868 views 3 this week
no commentswrite comment
1 2 3 4 5
please rate
add to favorites
launch autoscroll
font size
0
reset
how to read this tab
guitar tuner
Autoscroll
slow
fast
+/-
esc
set tempo
stop
Help us to improve Ultimate-Guitar.com Take our survey!
×
Author
this song is in drop d tuning!!!!!
it's also a pretty cool surf song

          "DICK TRACY" by The Ventures

pm........................................
e|-------------------------------------------|
b|-------------------------------------------|
g|-------------------------------------------|
d|-------------------------------------------|
a|-------------------------------------------|
d|---2-2--5-5--2-2--5-5--2-2--5-5--2-2--5-5--|

pm.........................................
e|-------------------------------------------|
b|-------------------------------------------|
g|-------------------------------------------|
d|-------------------------------------------|
a|-------------------------------------------|
d|---2-2--5-5--2-2--5-5--2-2--5-5--2-2--5-5--|

lead guitar
e|-------------------------------------------|
b|-------------------------------------------|
g|-------------------------------------------|
d|-------------------------------------------|
a|--------------2--1~~~~~--------------------|
d|---2~~~~~~~~~-----------5--2--0--2~~~~~~~~-|

e|-------------------------------------------|
b|-------------------------------------------|
g|-------------------------------------------|
d|-------------------------------------------|
a|--------------2--1~~~~~--------------------|
d|---2~~~~~~~~~-----------5--2--0--2~~~~~~~~-|

then:
e|------------------------------------------|
b|-------------5--4~~~~~~-------------------|
g|---2~~~~~~~~------------5--2--0--2~~~~~~~-|
d|------------------------------------------|
a|------------------------------------------|
d|------------------------------------------|

e|-------------------------------------------|
b|-------------------------------------------|
g|-------------------------------------------|
d|-------------------------------------------|
a|--------------2--1~~~~~--------------------|
d|---2~~~~~~~~~-----------5--2--0--2~~~~~~~~-|

then:
e|------------------------------------------|
b|------------------------------------------|
g|------------------------------------------|
d|---9--9~~~~~--7--7~~~~~--2~~~~~~~~~~~~~~~-|
a|---9--9~~~~~--7--7~~~~~--2~~~~~~~~~~~~~~~-|
d|---9--9~~~~~--7--7~~~~~--2~~~~~~~~~~~~~~~-|

fast part wee!:
e|----------------------------|-----------------------|
b|----------------------------|-----------------------|
g|----------------------------|-----------------------|
d|----------------------------|-----------------------|
a|-----------2-2-1----0--1-2--|---------1-1-----------|
d|---2-2--5--------5----------|--2-2--5------5-2--0-2-|

high part:
e|------10-11--12--12--10-----10--11-12-|---10--11-11--10------------|
b|---12-------------------12------------|-12---------------12--10-12-|
g|--------------------------------------|----------------------------|
d|--------------------------------------|----------------------------|
a|--------------------------------------|----------------------------|
d|--------------------------------------|----------------------------|

higher part:
|---17-18--19-19---17----17-18--19-|-----17--18-18--17------------|
|---------------------19-----------|--19----------------19--17-19-|
|----------------------------------|------------------------------|
|----------------------------------|------------------------------|
|----------------------------------|------------------------------|
|----------------------------------|------------------------------|

then a drum roll and back into:
pm........................................
e|-------------------------------------------|
b|-------------------------------------------|
g|-------------------------------------------|
d|-------------------------------------------|
a|-------------------------------------------|
d|---2-2--5-5--2-2--5-5--2-2--5-5--2-2--5-5--|

pm.........................................
e|-------------------------------------------|
b|-------------------------------------------|
g|-------------------------------------------|
d|-------------------------------------------|
a|-------------------------------------------|
d|---2-2--5-5--2-2--5-5--2-2--5-5--2-2--5-5--|


e|-------------------------------------------|
b|-------------------------------------------|
g|-------------------------------------------|
d|-------------------------------------------|
a|--------------2--1~~~~~--------------------|
d|---2~~~~~~~~~-----------5--2--0--2~~~~~~~~-|

e|-------------------------------------------|
b|-------------------------------------------|
g|-------------------------------------------|
d|-------------------------------------------|
a|--------------2--1~~~~~--------------------|
d|---2~~~~~~~~~-----------5--2--0--2~~~~~~~~-|

e|------------------------------------------|
b|-------------5--4~~~~~~-------------------|
g|---2~~~~~~~~------------5--2--0--2~~~~~~~-|
d|------------------------------------------|
a|------------------------------------------|
d|------------------------------------------|

e|-------------------------------------------|
b|-------------------------------------------|
g|-------------------------------------------|
d|-------------------------------------------|
a|--------------2--1~~~~~--------------------|
d|---2~~~~~~~~~-----------5--2--0--2~~~~~~~~-|

ending is just:
e|---------------------------------------------|
b|---------------------------------------------|
g|---------------------------------------------|
d|-------------------------------------------2-|
a|-------------------------------------------2-|
d|---5--2--0--2~~~-5~~~~-2~~~~~-0--2~~~~~~~~-2-|

and thats all!! yay!! two minutes of fun!!
hope this helps

-BERToast
Suggest correction
What's this?
You can suggest a correction to this tab. Community and Mods will review your correction and vote to approve or reject it.
comments
We did not receive enough feedback on this tab! Please rate:
print report bad tab
1 2 3 4 5
guest
You may want to rate the tab now too:
select rating
Please do not post tabs as comments. Select "correction" instead!