Oops, an error
Loading. Please wait.

Ginza Lights Tab

4,220 views 15 this week
no commentswrite comment
1 2 3 4 5
x 3
add to favorites
launch autoscroll
font size
0
reset
how to read this tab
guitar tuner
Autoscroll
slow
fast
+/-
esc
set tempo
stop
Help us to improve Ultimate-Guitar.com Take our survey!
×
Author
GINZA LIGHTS


The Ventures



   INTRO

  Rubato

   Gm                                A                       Dm
e|---------------------------------|---------------------------------|
B|-------------------------11------|-10-\----------------------------|
G|---------3--/--12----------------|-----------------6-------7-------|
D|---------------------------------|---------------------------------|
A|---------------------------------|---------------------------------|
E|---------------------------------|---------------------------------|

e|----3----------------------------|----5-----------------------5----|
B|---3-----------------------------|---5-----------------------6-----|
G|--3------------------------------|--6-----------------------7------|
D|-5-------------------------------|-7-----------------------7-------|
A|5--------------------------------|7-----------------------5--------|
E|---------------------------------|---------------------------------| ....



  A tempo

   (Dm)
e|---------------------------------|---------------------------------|
B|---------------------------------|---------------------------------|
G|---------------------------------|---------------------------------|
D|---------------------------------|-----------------------------7---|
A|---------------------------------|---------------------------------|
E|---------------------------------|---------------------------------|





   VERSE


   Dm
e|---------------------------------|---------------------------------|
B|---------6-------5---------------|-5-------------------------------|
G|-7---------------------------7---|---------7-----------------------|
D|---------------------------------|---------------------------------|
A|---------------------------------|---------------------------------|
E|---------------------------------|---------------------------------|




   Gm                                A
e|---------------------------------|---------------------------------|
B|---------5-------5-------3-------|-----------------------------10--|
G|-3-----------3-------------------|-2-------------------------------|
D|---------------------------------|---------------------------------|
A|---------------------------------|---------------------------------|
E|---------------------------------|---------------------------------|




   Dm
e|-10------13------12----------10--|-12------10----------------------|
B|---------------------------------|---------------------------------|
G|---------------------------------|---------------------------------|
D|---------------------------------|---------------------------------|
A|---------------------------------|---------------------------------|
E|---------------------------------|---------------------------------|




   Gm                                A
e|---------12------12------10------|---------------------------------|
B|-11----------11------------------|-10------------------------------|
G|---------------------------------|---------------------------------|
D|---------------------------------|---------------------------------|
A|---------------------------------|---------------------------------|
E|---------------------------------|---------------------------------|




   Gm
e|---------10------10------10------|-10------10------10--------------|
B|-------------11--------------11--|-------------11------11------11--|
G|-12------------------------------|-------------------------12------|
D|---------------------------------|---------------------------------|
A|---------------------------------|---------------------------------|
E|---------------------------------|---------------------------------|




   Dm
e|---------10------10------10------|-10------10------10--------------|
B|-------------10--------------10--|-------------10------10------10--|
G|-10------------------------------|-------------------------10------|
D|---------------------------------|---------------------------------|
A|---------------------------------|---------------------------------|
E|---------------------------------|---------------------------------|




   A
e|---------------------------------|---------------------------------|
B|-----------------------------11--|-10------8-------6H8P6---5H6P5---|
G|-9-------------------------------|---------------------------------|
D|---------------------------------|---------------------------------|
A|---------------------------------|---------------------------------|
E|---------------------------------|---------------------------------|




   Dm
e|---------------------------------|---------------------------------|
B|---------------------------------|---------------------------------|
G|-7-------------------------------|---------------------------------|
D|---------------------------------|---------------------------------|
A|---------------------------------|-----------------------------0---|
E|---------------------------------|---------------------------------|





   VERSE


   Dm
e|---------------------------------|---------------------------------|
B|---------------------------------|---------------------------------|
G|---------------------------------|---------------------------------|
D|-0-------3-------2-----------0---|-2-------0-----------------------|
A|---------------------------------|---------------------------------|
E|---------------------------------|---------------------------------|




   Gm                                A
e|---------------------------------|---------------------------------|
B|---------------------------------|---------------------------------|
G|---------------------------------|---------------------------------|
D|---------2-------2-------0-------|-----------------------------7---|
A|-1-----------1-------------------|-0-------------------------------|
E|---------------------------------|---------------------------------|




   Dm
e|---------------------------------|---------------------------------|
B|---------6-------5---------------|-5-------------------------------|
G|-7---------------------------7---|---------7-----------------------|
D|---------------------------------|---------------------------------|
A|---------------------------------|---------------------------------|
E|---------------------------------|---------------------------------|




   Gm                                A
e|---------------------------------|---------------------------------|
B|---------5-------5-------3-------|---------------------------------|
G|-3-----------3-------------------|-2-------------------------------|
D|---------------------------------|---------------------------------|
A|---------------------------------|---------------------------------|
E|---------------------------------|---------------------------------|




   Gm
e|---------------------------------|---------------------------------|
B|---------3-------3-------3-------|-3-------3-------3---------------|
G|-------------3---------------3---|-------------3-------3-------3---|
D|-5-------------------------------|-------------------------5-------|
A|---------------------------------|---------------------------------|
E|---------------------------------|---------------------------------|




   Dm
e|---------------------------------|---------------------------------|
B|---------3-------3-------3-------|-3-------3-------3---------------|
G|-------------2---------------2---|-------------2-------2-------2---|
D|-3-------------------------------|-------------------------3-------|
A|---------------------------------|---------------------------------|
E|---------------------------------|---------------------------------|




   A
e|---------------------------------|---------------------------------|
B|---------------------------------|---------------------------------|
G|-----------------------------3---|-2-------0-----------------------|
D|-2-------------------------------|-----------------3H5P3---2H3P2---|
A|---------------------------------|---------------------------------|
E|---------------------------------|---------------------------------|




   Dm
e|---------------------------------|---------------------------------|
B|---------------------------------|---------------------------------|
G|---------------------------------|---------------------------------|
D|-0-------------------------------|---------------------------------|
A|---------------------------------|---------------------------------|
E|---------------------------------|---------------------------------|





   BRIDGE


   Gm
e|---------------------------------|---------------------------------|
B|-----------------5---------------|---------3---5---6----5----3-----|
G|-3-----------3-------------------|---------------------------------|
D|---------------------------------|---------------------------------|
A|---------------------------------|---------------------------------|
E|---------------------------------|---------------------------------|




   Dm
e|---------------------------------|---------10--12--13---12---10----|
B|-3-----------/-------------------|---------------------------------|
G|---------------------------------|---------------------------------|
D|---------------------------------|---------------------------------|
A|---------------------------------|---------------------------------|
E|---------------------------------|---------------------------------|




   Bb
e|---------------------------------|---------------------------------|
B|-11------------------------------|-13--11------13--11------13--11--|
G|-----------------------------10--|---------10----------10----------|
D|---------------------------------|---------------------------------|
A|---------------------------------|---------------------------------|
E|---------------------------------|---------------------------------|




   A
e|---------------------------------|---------------------------------|
B|-10------------------------------|---------------------------------|
G|---------------------------------|---------------------------------|
D|---------------------------------|---------------------------------|
A|---------------------------------|-----------------------------0---|
E|---------------------------------|---------------------------------|





   VERSE


   Dm
e|---------------------------------|---------------------------------|
B|---------------------------------|---------------------------------|
G|---------------------------------|---------------------------------|
D|-0-------3-------2-----------0---|-2-------0-----------------------|
A|---------------------------------|---------------------------------|
E|---------------------------------|---------------------------------|




   Gm                                A
e|---------------------------------|---------------------------------|
B|---------------------------------|---------------------------------|
G|---------------------------------|---------------------------------|
D|---------2-------2-------0-------|-----------------------------7---|
A|-1-----------1-------------------|-0-------------------------------|
E|---------------------------------|---------------------------------|




   Dm
e|---------------------------------|---------------------------------|
B|---------6-------5---------------|-5-------------------------------|
G|-7---------------------------7---|---------7-----------------------|
D|---------------------------------|---------------------------------|
A|---------------------------------|---------------------------------|
E|---------------------------------|---------------------------------|




   Gm                                A
e|---------------------------------|---------------------------------|
B|---------5-------5-------3-------|---------------------------------|
G|-3-----------3-------------------|-2-------------------------------|
D|---------------------------------|---------------------------------|
A|---------------------------------|---------------------------------|
E|---------------------------------|---------------------------------|




   Gm
e|---------------------------------|---------------------------------|
B|---------3-------3-------3-------|-3-------3-------3---------------|
G|-------------3---------------3---|-------------3-------3-------3---|
D|-5-------------------------------|-------------------------5-------|
A|---------------------------------|---------------------------------|
E|---------------------------------|---------------------------------|




   Dm
e|---------------------------------|---------------------------------|
B|---------3-------3-------3-------|-3-------3-------3---------------|
G|-------------2---------------2---|-------------2-------2-------2---|
D|-3-------------------------------|-------------------------3-------|
A|---------------------------------|---------------------------------|
E|---------------------------------|---------------------------------|




   A
e|---------------------------------|---------------------------------|
B|---------------------------------|---------------------------------|
G|-----------------------------3---|-2-------0-----------------------|
D|-2-------------------------------|-----------------3H5P3---2H3P2---|
A|---------------------------------|---------------------------------|
E|---------------------------------|---------------------------------|




   Dm
e|---------------------------------|---------------------------------|
B|---------------------------------|---------------------------------|
G|---------------------------------|---------------------------------|
D|-0-------------------------------|---------------------------------|
A|---------------------------------|---------------------------------|
E|---------------------------------|---------------------------------|





   OUTRO


   A
e|---------------------------------|---------------------------------|
B|---------------------------------|-----------------6----5----------|
G|-----------------2---------------|---------------------------6-----|
D|-2-----------2-------------------|---------------------------------|
A|---------------------------------|---------------------------------|
E|---------------------------------|---------------------------------|




   Dm
e|---------------------------------|---------------------------------|
B|---------------------------------|---------------------------------|
G|-7-------------------------------|---------------------------------|
D|---------------------------------|---------------------------------|
A|---------------------------------|---------------------------------|
E|---------------------------------|---------------------------------|




   A
e|---------------------------------|-3-------------------------------|
B|---------------------------------|-----------------6----5----------|
G|-----------------2---------------|---------------------------6-----|
D|-2-----------2-------------------|---------------------------------|
A|---------------------------------|---------------------------------|
E|---------------------------------|---------------------------------|




   Dm
e|---------------------------------|-----------------5---------------|
B|---------------------------------|-----------------6---------------|
G|-7-------------------------------|-----------------7---------------|
D|---------------------------------|-----------------7---------------|
A|---------------------------------|---------------------------------|
E|---------------------------------|---------------------------------|
Suggest correction
Give kudos to tab author, rate the tab!
1 2 3 4 5
comments
print report bad tab
guest
You may want to rate the tab now too:
select rating
Wanna post a correction for this tab? Suggest correction