Oops, an error
Loading. Please wait.

House Of The Rising Sun Tab

version 1
version 1

Whole song

Interactive

30,347 views 21 this week
1 commentread comment
1 2 3 4 5
accurate
x 4
add to favorites
launch autoscroll
font size
0
reset
how to read this tab
guitar tuner
Autoscroll
slow
fast
+/-
esc
set tempo
stop
Help us to improve Ultimate-Guitar.com Take our survey!
×
Author
ventures version.

                       "HOUSE OF THE RISING SUN" by The Ventures


|-------0-------0-------2-2--------1-1---------0------------------0---------------|
|------1-1-----1-1----3----3-----1----1-------1-1-------0-------1--1--------0-----|
|-----2---2---0---0--2------2---2------2----2----2-----1-1-----2----2-----1--1----|
|----2-------2------0----------3-----------2----------2----2--2----------2-----2--|
|---0-------3-----------------------------0----------2-------0----------2---------|
|---------------------------------------------------0------------------0----------|


verse:

|---------------------------------------------------------------|
|---------------------------------------------------------------|
|---------------------------------------------------------------|
|-----------------------------------5h7-7~~-5-------------------|
|----------------------5h7-5------------------7--5--3--5b-5~~~--|
|---5--5~~~~-7-8~~~~----------5-5~~~----------------------------


|------------------------------------------|
|------------------------------------------|
|------------------------------------------|
|---5h7-7----------------------------------|
|---------3--7--5--3--5b-5~~--3--5p3-------|
|-------------------------------------5~~~-|

|--------------------------------|
|--------------------------------|
|--------------------------------|
|--------------------------------|
|--------------------------------|
|---0--3-3/-5~~~-5--3--0~~~-3----|


|-------0-------0-------2-2--------1-1---------0------------------0---------------|
|------1-1-----1-1----3----3-----1----1-------1-1-------0-------1--1--------0-----|
|-----2---2---0---0--2------2---2------2----2----2-----1-1-----2----2-----1--1----|
|----2-------2------0----------3-----------2----------2----2--2----------2-----2--|
|---0-------3-----------------------------0----------2-------0----------2---------|
|---------------------------------------------------0------------------0----------|

repeat chords through keyboard solo until next guitar solo

|-------------------------------------------------------|
|-------10-10-10-----10-10-10----10-10-10---------------|
|---12b----------12b----------12b-----------------------|
|-------------------------------------------12--10------|
|---------------------------------------------------12--|
|-------------------------------------------------------|

|-------------------------------------------------------------------------------|
|----------13----15p13--------13----15p13-------13----15p13-------13---15p13----|
|---12/14-----14--------12/14----14-------12/14----14--------12/14---14---------|
|-------------------------------------------------------------------------------|
|-------------------------------------------------------------------------------|
|-------------------------------------------------------------------------------|

|-------------------------------------------|
|-------13-13-----13-13-----13-13----13-13--|
|---12b-------12b-------12b-------12b-------|
|-------------------------------------------|
|-------------------------------------------|
|-------------------------------------------|

thats all i got of the second solo sorry, but i'll be sure to update

this'll get you playing the ventures version though, so hooray!

-Bert
Suggest correction new What's this?
You can suggest a correction to this tab. Community and Mods will review your correction and vote to approve or reject it.
comments
print report bad tab
1 comment total.
0 reply
don-a 11 wrote on April 3 2010, 12:04 pm

Please Update

guest
You may want to rate the tab now too:
select rating
Please do not post tabs as comments. Select "correction" instead!