Oops, an error
Loading. Please wait.

Kimi To Itsumedemo Tab

version 1
version 1

Whole song

Interactive

1,319 views 6 this week
no commentswrite comment
1 2 3 4 5
please rate
add to favorites
launch autoscroll
font size
0
reset
how to read this tab
guitar tuner
Autoscroll
slow
fast
+/-
esc
set tempo
stop
Help us to improve Ultimate-Guitar.com Take our survey!
×
Author
Capo
bass69 4,911
1st fret
KIMI TO ITSUMADEMO


The Ventures




  Use a capo on 1st fret

e|---------------------------------|---------------------------------|
B|---------------------------------|-----------------0----1----3-----|
G|-t-136---------------------------|------------0--------------------|
D|---------------------------------|---------------------------------|
A|---------------------------------|---------------------------------|
E|---------------------------------|---------------------------------|




VERSE


   G
e|---------------------------------|-----------------7----5----------|
B|---------------------------------|---------------------------8-----|
G|-0-------------------------------|------------7--------------------|
D|---------------------------------|---------------------------------|
A|---------------------------------|---------------------------------|
E|---------------------------------|---------------------------------|



   Bm
e|---------------------------------|-----------------5---------------|
B|-7-------------------------------|------------5---------8----7-----|
G|---------------------------------|---------------------------------|
D|---------------------------------|---------------------------------|
A|---------------------------------|---------------------------------|
E|---------------------------------|---------------------------------|



   C
e|---------------------------------|------------3----5----5/7--------|
B|-5-------------------------------|-------5-------------------------|
G|---------------------------------|---------------------------------|
D|---------------------------------|---------------------------------|
A|---------------------------------|---------------------------------|
E|---------------------------------|---------------------------------|



   D7
e|---------------------------------|---------------------------------|
B|---------------------------------|-----------------0----1----3-----|
G|---------------------------------|---------------------------------|
D|---------------------------------|---------------------------------|
A|---------------------------------|---------------------------------|
E|---------------------------------|---------------------------------|




VERSE


   G
e|---------------------------------|----------------------3----5-----|
B|---------------------------------|-0---------------3---------------|
G|-0-------------------------------|---------------------------------|
D|---------------------------------|---------------------------------|
A|---------------------------------|---------------------------------|
E|---------------------------------|---------------------------------|



   Bm
e|-5/7-----------------------------|-----------------5---------------|
B|---------------------------------|----------------------------9----|
G|---------------------------------|---------------------------------|
D|---------------------------------|---------------------------------|
A|---------------------------------|---------------------------------|
E|---------------------------------|---------------------------------|



   C
e|---------------------------------|---------------------------------|
B|-8-------------------------------|-----------------9B---8----------|
G|---------------------------------|------------9--------------9-----|
D|---------------------------------|---------------------------------|
A|---------------------------------|---------------------------------|
E|---------------------------------|---------------------------------|



   D7
e|---------------------------------|---------------------------------|
B|---------------------------------|-----------------0----1----3-----|
G|-7-------------------------------|---------------------------------|
D|---------------------------------|---------------------------------|
A|---------------------------------|---------------------------------|
E|---------------------------------|---------------------------------|




VERSE


   G
e|---------------------------------|---------------------------------|
B|---------------------------------|-0---------------3----------5----|
G|-0-------------------------------|---------------------------------|
D|---------------------------------|---------------------------------|
A|---------------------------------|---------------------------------|
E|---------------------------------|---------------------------------|



   Bm
e|---------------------------------|-----------------0----2----3-----|
B|-6-B-7---------------------------|---------------------------------|
G|-6-B-7---------------------------|---------------------------------|
D|---------------------------------|---------------------------------|
A|---------------------------------|---------------------------------|
E|---------------------------------|---------------------------------|



   C
e|-5-------------------------------|------------0----3----2----0-----|
B|---------------------------------|---------------------------------|
G|---------------------------------|---------------------------------|
D|---------------------------------|---------------------------------|
A|---------------------------------|---------------------------------|
E|---------------------------------|---------------------------------|



   D7
e|---------------------------------|---------------------------5-----|
B|-3-------------------------------|----------------------8----------|
G|---------------------------------|-----------------7---------------|
D|---------------------------------|---------------------------------|
A|---------------------------------|---------------------------------|
E|---------------------------------|---------------------------------|




BRIDGE


   G
e|-7-------------------------------|-----------------7----5----------|
B|---------------------------------|---------------------------8-----|
G|---------------------------------|---------------------------------|
D|---------------------------------|---------------------------------|
A|---------------------------------|---------------------------------|
E|---------------------------------|---------------------------------|



   Bm
e|-5-B-7---------------------------|-----------------7----5----------|
B|---------------------------------|---------------------------8-----|
G|---------------------------------|---------------------------------|
D|---------------------------------|---------------------------------|
A|---------------------------------|---------------------------------|
E|---------------------------------|---------------------------------|



   C
e|-7/8-----------------------------|-----------------8----7----------|
B|---------------------------------|---------------------------10----|
G|---------------------------------|---------------------------------|
D|---------------------------------|---------------------------------|
A|---------------------------------|---------------------------------|
E|---------------------------------|---------------------------------|



   D7
e|---------------------------------|---------------------------5-----|
B|-9/10----------------------------|----------------------8----------|
G|---------------------------------|-----------------7---------------|
D|---------------------------------|---------------------------------|
A|---------------------------------|---------------------------------|
E|---------------------------------|---------------------------------|



   G
e|-7-------------------------------|-----------------7----5----------|
B|---------------------------------|---------------------------8-----|
G|---------------------------------|---------------------------------|
D|---------------------------------|---------------------------------|
A|---------------------------------|---------------------------------|
E|---------------------------------|---------------------------------|



   Bm
e|-5-B-7---------------------------|-----------------7----5----------|
B|---------------------------------|---------------------------8-----|
G|---------------------------------|---------------------------------|
D|---------------------------------|---------------------------------|
A|---------------------------------|---------------------------------|
E|---------------------------------|---------------------------------|



   C
e|-7/8-----------------------------|-----------------8----7----------|
B|---------------------------------|---------------------------10----|
G|---------------------------------|---------------------------------|
D|---------------------------------|---------------------------------|
A|---------------------------------|---------------------------------|
E|---------------------------------|---------------------------------|



   D7                                D#
e|-8/10----------------------------|---------------------------------|
B|---------------------------------|-----------------1----2----4-----|
G|---------------------------------|-----------------0----1----3-----|
D|---------------------------------|---------------------------------|
A|---------------------------------|---------------------------------|
E|---------------------------------|---------------------------------|




VERSE


   G#
e|---------------------------------|-----------------4----------6----|
B|---------------------------------|-----------------4----------6----|
G|-1-------------------------------|---------------------------------|
D|-1-------------------------------|---------------------------------|
A|---------------------------------|---------------------------------|
E|---------------------------------|---------------------------------|



   Cm
e|-8-------------------------------|------------------6---------5----|
B|-8-------------------------------|-----------------6----------5----|
G|---------------------------------|---------------------------------|
D|---------------------------------|---------------------------------|
A|---------------------------------|---------------------------------|
E|---------------------------------|---------------------------------|



  C#
e|---4-----------------------------|-----------------6----4----------|
B|--6------------------------------|------------6----6----4----6-----|
G|-6-------------------------------|------------6--------------6-----|
D|---------------------------------|---------------------------------|
A|---------------------------------|---------------------------------|
E|---------------------------------|---------------------------------|



   D#
e|---------------------------------|---------------------------------|
B|-4-------------------------------|-----------------1----2----4-----|
G|-3-------------------------------|-----------------0----1----3-----|
D|---------------------------------|---------------------------------|
A|---------------------------------|---------------------------------|
E|---------------------------------|---------------------------------|




VERSE


   G#
e|---------------------------------|---------------------------------|
B|---------------------------------|-----------------1----------2----|
G|-1-------------------------------|-1---------------0----------1----|
D|-1-------------------------------|-1-------------------------------|
A|---------------------------------|---------------------------------|
E|---------------------------------|---------------------------------|



   Cm
e|---------------------------------|----------------------3----4-----|
B|-4-------------------------------|-----------------6---------------|
G|-5-------------------------------|---------------------------------|
D|---------------------------------|---------------------------------|
A|---------------------------------|---------------------------------|
E|---------------------------------|---------------------------------|



   C#
e|-6-------------------------------|-----------------4----3----------|
B|---------------------------------|------------4--------------6-----|
G|-7B------------------------------|---------------------------------|
D|---------------------------------|---------------------------------|
A|---------------------------------|---------------------------------|
E|---------------------------------|---------------------------------|



   D#
e|---------------------------------|----------------------4----6-----|
B|-4-------------------------------|-----------------4---------------|
G|-3-------------------------------|---------------------------------|
D|---------------------------------|---------------------------------|
A|---------------------------------|---------------------------------|
E|---------------------------------|---------------------------------|




BRIDGE


   G#
e|-7/8-----------------------------|-----------------8----6----------|
B|---------------------------------|---------------------------9-----|
G|---------------------------------|---------------------------------|
D|---------------------------------|---------------------------------|
A|---------------------------------|---------------------------------|
E|---------------------------------|---------------------------------|



   Cm
e|-7B8-------------7B8-------------|-7B8-------------7B8---6---------|
B|---------------------------------|----------------------------9----|
G|---------------------------------|---------------------------------|
D|---------------------------------|---------------------------------|
A|---------------------------------|---------------------------------|
E|---------------------------------|---------------------------------|



   C#
e|-8B9-----------------------------|-----------------8B9---8---5B6---|
B|---------------------------------|---------------------------------|
G|---------------------------------|---------------------------------|
D|---------------------------------|---------------------------------|
A|---------------------------------|---------------------------------|
E|---------------------------------|---------------------------------|



   D#
e|-5B6-------------4---------------|-3--------------------4----6-----|
B|---------------------------------|-----------------4---------------|
G|---------------------------------|---------------------------------|
D|---------------------------------|---------------------------------|
A|---------------------------------|---------------------------------|
E|---------------------------------|---------------------------------|



   G#
e|-7B8-------------7B8-------------|-7B8-------------7B8---6---------|
B|---------------------------------|----------------------------9----|
G|---------------------------------|---------------------------------|
D|---------------------------------|---------------------------------|
A|---------------------------------|---------------------------------|
E|---------------------------------|---------------------------------|



   Cm
e|-7B8-------------7B8-------------|-7B8-------------7B8---6---------|
B|---------------------------------|----------------------------9----|
G|---------------------------------|---------------------------------|
D|---------------------------------|---------------------------------|
A|---------------------------------|---------------------------------|
E|---------------------------------|---------------------------------|



   C#
e|-8B9-------------8B9-------------|-8B9-------------9----8----------|
B|---------------------------------|---------------------------11----|
G|---------------------------------|---------------------------------|
D|---------------------------------|---------------------------------|
A|---------------------------------|---------------------------------|
E|---------------------------------|---------------------------------|



   D#                                E
e|-10/11-----------10B11-----------|-12------------------------------|
B|---------------------------------|-----------------2----3----5-----|
G|---------------------------------|-----------------1----2----4-----|
D|---------------------------------|---------------------------------|
A|---------------------------------|---------------------------------|
E|---------------------------------|---------------------------------|




VERSE


   A
e|---------------------------------|----------------------------7----|
B|---------------------------------|-----------------5----------6----|
G|-2-------------------------------|-----------------6---------------|
D|-2-------------------------------|---------------------------------|
A|---------------------------------|---------------------------------|
E|---------------------------------|---------------------------------|



   C#m
e|--12-----------------------------|------------------7---------6----|
B|-14------------------------------|-----------------6---------6-----|
G|---------------------------------|---------------------------------|
D|---------------------------------|---------------------------------|
A|---------------------------------|---------------------------------|
E|---------------------------------|---------------------------------|



   D
e|--5------------------------------|-----------------7----5----------|
B|-7-------------------------------|------------7--------------7-----|
G|---------------------------------|---------------------------------|
D|---------------------------------|---------------------------------|
A|---------------------------------|---------------------------------|
E|---------------------------------|---------------------------------|



   E
e|---------------------------------|---------------------------------|
B|-5-------------------------------|-----------------2----3----5-----|
G|---------------------------------|-----------------1----2----4-----|
D|---------------------------------|---------------------------------|
A|---------------------------------|---------------------------------|
E|---------------------------------|---------------------------------|



   A
e|---------------------------------|---------------------------------|
B|---------------------------------|---------------------------------|
G|-2-------------------------------|---------------------------------|
D|-2-------------------------------|---------------------------------|
A|---------------------------------|---------------------------------|
E|---------------------------------|---------------------------------|....
Suggest correction new What's this?
You can suggest a correction to this tab. Community and Mods will review your correction and vote to approve or reject it.
comments
We did not receive enough feedback on this tab! Please rate:
print report bad tab
1 2 3 4 5
guest
You may want to rate the tab now too:
select rating
Please do not post tabs as comments. Select "correction" instead!