Oops, an error
Loading. Please wait.

Limbo Rock Bass Tab

1,188 views 1 this week
no commentswrite comment
1 2 3 4 5
2 more votes to show rating
add to favorites
launch autoscroll
font size
0
reset
guitar tuner
Autoscroll
slow
fast
+/-
esc
set tempo
stop
Help us to improve Ultimate-Guitar.com Take our survey!
×
Author
LIMBO ROCK

The Ventures

VERSE

G|---------------------------------|---------------------------------|
D|-5-------------------------------|-5-------------------------------|
A|-----------------5---------------|-----------------5---------------|
E|---------------------------------|---------------------------------|

G|---------------------------------|---------------------------------|
D|---------------------------------|-5-------------------------------|
A|-5-------------------------------|-----------------5---------------|
E|-----------------5---------------|---------------------------------|

G|---------------------------------|---------------------------------|
D|-5-------------------------------|-5-------------------------------|
A|-----------------5---------------|-----------------5---------------|
E|---------------------------------|---------------------------------|

G|---------------------------------|---------------------------------|
D|---------------------------------|-5-------------------------------|
A|-5-------------------------------|-----------------5---------------|
E|-----------------5---------------|---------------------------------|

G|---------------------------------|---------------------------------|
D|---------------------------------|---------------------------------|
A|-3-------------------------------|-3-------------------------------|
E|-----------------3---------------|-----------------3---------------|

G|---------------------------------|---------------------------------|
D|-5-------------------------------|---------------------------------|
A|-----------------5---------------|-5-------------------------------|
E|---------------------------------|-----------------5---------------|

G|---------------------------------|---------------------------------|
D|---------------------------------|---------------------------------|
A|-5-------------------------------|-5-------------------------------|
E|-----------------5---------------|-----------------5---------------|

G|---------------------------------|---------------------------------|
D|-5-----------------------5-------|---------------------------------|
A|-----------------5---------------|---------------------------------|
E|---------------------------------|---------------------------------|

VERSE

G|---------------------------------|---------------------------------|
D|-5-------------------------------|-5-------------------------------|
A|-----------------5---------------|-----------------5---------------|
E|---------------------------------|---------------------------------|

G|---------------------------------|---------------------------------|
D|---------------------------------|-5-------------------------------|
A|-5-------------------------------|-----------------5---------------|
E|-----------------5---------------|---------------------------------|

G|---------------------------------|---------------------------------|
D|-5-------------------------------|-5-------------------------------|
A|-----------------5---------------|-----------------5---------------|
E|---------------------------------|---------------------------------|

G|---------------------------------|---------------------------------|
D|---------------------------------|-5-------------------------------|
A|-5-------------------------------|-----------------5---------------|
E|-----------------5---------------|---------------------------------|

G|---------------------------------|---------------------------------|
D|---------------------------------|---------------------------------|
A|-3-------------------------------|-3-------------------------------|
E|-----------------3---------------|-----------------3---------------|

G|---------------------------------|---------------------------------|
D|-5-------------------------------|---------------------------------|
A|-----------------5---------------|-5-------------------------------|
E|---------------------------------|-----------------5---------------|

G|---------------------------------|---------------------------------|
D|---------------------------------|---------------------------------|
A|-5-------------------------------|-5-------------------------------|
E|-----------------5---------------|-----------------5---------------|

G|---------------------------------|---------------------------------|
D|-5-----------------------5-------|---------------------------------|
A|-----------------5---------------|---------------------------------|
E|---------------------------------|---------------------------------|

INTERLUDE

G|---------------------------------|---------------------------------|
D|---------------------------------|---------------------------------|
A|---------------------------------|---------------------------------|
E|---------------------------------|---------------------------------|

G|---------------------------------|---------------------------------|
D|---------------------------------|---------------------------------|
A|---------------------------------|---------------------------------|
E|---------------------------------|---------------------------------|

G|---------------------------------|---------------------------------|
D|---------------------------------|---------------------------------|
A|---------------------------------|---------------------------------|
E|---------------------------------|---------------------------------|

G|---------------------------------|---------------------------------|
D|---------------------------------|---------------------------------|
A|---------------------------------|---------------------------------|
E|---------------------------------|---------------------------------|

G|---------------------------------|---------------------------------|
D|-5---------------5---------------|-5---------------5---------------|
A|--------------5---------------5--|--------------5----------5-------|
E|---------------------------------|---------------------------------|

G|---------------------------------|---------------------------------|
D|-5---------------5---------------|-5---------------5---------------|
A|--------------5---------------5--|--------------5----------5-------|
E|---------------------------------|---------------------------------|

G|---------------------------------|---------------------------------|
D|-5---------------5---------------|-5---------------5---------------|
A|--------------5---------------5--|--------------5----------5-------|
E|---------------------------------|---------------------------------|

G|---------------------------------|---------------------------------|
D|-5---------------5---------------|-5-------------------------------|
A|--------------5---------------5--|---------------------------------|
E|---------------------------------|---------------------------------|

VERSE

G|---------------------------------|---------------------------------|
D|-5-------------------------------|-5-------------------------------|
A|-----------------5---------------|-----------------5---------------|
E|---------------------------------|---------------------------------|

G|---------------------------------|---------------------------------|
D|---------------------------------|-5-------------------------------|
A|-5-------------------------------|-----------------5---------------|
E|-----------------5---------------|---------------------------------|

G|---------------------------------|---------------------------------|
D|-5-------------------------------|-5-------------------------------|
A|-----------------5---------------|-----------------5---------------|
E|---------------------------------|---------------------------------|

G|---------------------------------|---------------------------------|
D|---------------------------------|-5-------------------------------|
A|-5-------------------------------|-----------------5---------------|
E|-----------------5---------------|---------------------------------|

G|---------------------------------|---------------------------------|
D|---------------------------------|---------------------------------|
A|-3-------------------------------|-3-------------------------------|
E|-----------------3---------------|-----------------3---------------|

G|---------------------------------|---------------------------------|
D|-5-------------------------------|---------------------------------|
A|-----------------5---------------|-5-------------------------------|
E|---------------------------------|-----------------5---------------|

G|---------------------------------|---------------------------------|
D|---------------------------------|---------------------------------|
A|-5-------------------------------|-5-------------------------------|
E|-----------------5---------------|-----------------5---------------|

G|---------------------------------|---------------------------------|
D|-5-----------------------5-------|---------------------------------|
A|-----------------5---------------|---------------------------------|
E|---------------------------------|---------------------------------|

VERSE

G|---------------------------------|---------------------------------|
D|-5-------------------------------|-5-------------------------------|
A|-----------------5---------------|-----------------5---------------|
E|---------------------------------|---------------------------------|

G|---------------------------------|---------------------------------|
D|---------------------------------|-5-------------------------------|
A|-5-------------------------------|-----------------5---------------|
E|-----------------5---------------|---------------------------------|

G|---------------------------------|---------------------------------|
D|-5-------------------------------|-5-------------------------------|
A|-----------------5---------------|-----------------5---------------|
E|---------------------------------|---------------------------------|

G|---------------------------------|---------------------------------|
D|---------------------------------|-5-------------------------------|
A|-5-------------------------------|-----------------5---------------|
E|-----------------5---------------|---------------------------------|

G|---------------------------------|---------------------------------|
D|---------------------------------|---------------------------------|
A|-3-------------------------------|-3-------------------------------|
E|-----------------3---------------|-----------------3---------------|

G|---------------------------------|---------------------------------|
D|-5-------------------------------|---------------------------------|
A|-----------------5---------------|-5-------------------------------|
E|---------------------------------|-----------------5---------------|

G|---------------------------------|---------------------------------|
D|---------------------------------|---------------------------------|
A|-5-------------------------------|-5-------------------------------|
E|-----------------5---------------|-----------------5---------------|

G|---------------------------------|---------------------------------|
D|-5-----------------------5-------|---------------------------------|
A|-----------------5---------------|---------------------------------|
E|---------------------------------|---------------------------------|

OUTRO

G|---------------------------------|---------------------------------|
D|-5---------------5---------------|-5---------------5--5--5---------|
A|--------------5---------------5--|--------------5----------5-------|
E|---------------------------------|---------------------------------|

G|---------------------------------|---------------------------------|
D|-5---------------5---------------|-5---------------5---------------|
A|--------------5---------------5--|--------------5----------5-------|
E|---------------------------------|---------------------------------|

G|---------------------------------|---------------------------------|
D|-5---------------5---------------|-5---------------5---------------|
A|--------------5---------------5--|--------------5----------5-------|
E|---------------------------------|---------------------------------|

G|---------------------------------|---------------------------------|
D|-5---------------5---------------|-5---------------5---------------|
A|--------------5---------------5--|--------------5----------5-------|
E|---------------------------------|---------------------------------|

G|---------------------------------|---------------------------------|
D|-5---------------5---------------|-5---------------5---------------|
A|--------------5---------------5--|--------------5----------5-------|
E|---------------------------------|---------------------------------|

G|---------------------------------|---------------------------------|
D|-5---------------5---------------|---F---A---D---E----O---U---T----|
A|--------------5---------------5--|---------------------------------|
E|---------------------------------|---------------------------------|
Suggest correction
Give kudos to tab author, rate the tab!
1 2 3 4 5
comments
print report bad tab
guest
You may want to rate the tab now too:
select rating
Wanna post a correction for this tab? Suggest correction