Oops, an error
Loading. Please wait.

Limbo Rock Tab

3,213 views 1 this week
no commentswrite comment
1 2 3 4 5
please rate
add to favorites
launch autoscroll
font size
0
reset
how to read this tab
guitar tuner
Tab Pro tools
  • play this tab
  • loop segment
  • change instrument
  • show fretboard
  • metronome
×
Best way to learn
"Limbo Rock"
Autoscroll
slow
fast
+/-
esc
set tempo
stop
Contributor
LIMBO ROCK


The Ventures





e|---------------------------------|---------------------------------|
B|---------------------------------|---------------------------------|
G|---------------------------------|---------------------------------|
D|---------------------------------|---------------------------------|
A|---------------------------------|-----------------------------2---|
E|---------------------------------|----------------------3--3-------|




  VERSE

  00:01

   G                                 D               G
e|---------------------------------|---------------------------------|
B|---------------------------------|---------------------------------|
G|---------------------------------|---------------------------------|
D|---------------------------------|---------------------------------|
A|-5----5--5----2--------------2---|-0----0--5----5--2-----------2---|
E|----------------------3--3-------|----------------------3--3-------|



                                     D               G
e|---------------------------------|---------------------------------|
B|---------------------------------|---------------------------------|
G|---------------------------------|---------------------------------|
D|---------------------------------|-------------------------2-------|
A|-5----5--5----2--5-----------2---|-0----0--5----5--2-----------3---|
E|----------------------3--3-------|---------------------------------|



   C                                 G               D
e|---------------------------------|---------------------------------|
B|---------------------------------|---------------------------------|
G|---------------------------------|---------------------------------|
D|-2----2--2-------2---------------|-5-------------------------------|
A|--------------3-------5--5---3---|-----5---5----2--0-----------2---|
E|---------------------------------|----------------------3--3-------|



                                     G
e|---------------------------------|---------------------------------|
B|---------------------------------|---------------------------------|
G|---------------------------------|-----------------------------4---|
D|---------------------------------|----------------------5--5-------|
A|-0----0--5--0--5------2--2---0---|---------------------------------|
E|---------------------------------|-3----3--0----0--3---------------|




  VERSE

  00:20

   G                                 D               G
e|---------------------------------|---------------------------------|
B|-3----3--3-------3---------------|---------3----3------------------|
G|--------------4--------------4---|-2----2----------4-----------4---|
D|----------------------5--5-------|----------------------5--5-------|
A|---------------------------------|---------------------------------|
E|---------------------------------|---------------------------------|



                                     D               G
e|---------------------------------|---------------------------------|
B|-3----3--3-------3---------------|---------3----3----------5-------|
G|--------------4--------------4---|-2----2----------4-----------5---|
D|----------------------5--5-------|---------------------------------|
A|---------------------------------|---------------------------------|
E|---------------------------------|---------------------------------|



   C                                 G               D
e|---------------------------------|---------------------------------|
B|-5----5--5-------5---------------|-8-------------------------------|
G|--------------5-------7--7---5---|------7--7-------------------4---|
D|---------------------------------|--------------9--7----5--5-------|
A|---------------------------------|---------------------------------|
E|---------------------------------|---------------------------------|



                                     G
e|---------------------------------|---------------------------------|
B|---------3-----3-----------------|---------------------------------|
G|-2----2-----2---------2--4---2---|-0----0----------0---------------|
D|---------------------------------|---------2----2------------------|
A|---------------------------------|---------------------------------|
E|---------------------------------|---------------------------------|




  INTERLUDE


  00:40  ....


  VERSE

  01:00

   G                                 D               G
e|---------------------------------|---------------------------------|
B|---------------------------------|---------------------------------|
G|---------------------------------|---------------------------------|
D|---------------------------------|---------------------------------|
A|-5----5--5----2--------------2---|-0----0--5----5--2-----------2---|
E|----------------------3--3-------|----------------------3--3-------|



                                     D               G
e|---------------------------------|---------------------------------|
B|---------------------------------|---------------------------------|
G|---------------------------------|---------------------------------|
D|---------------------------------|-------------------------2-------|
A|-5----5--5----2--5-----------2---|-0----0--5----5--2-----------3---|
E|----------------------3--3-------|---------------------------------|



   C                                 G               D
e|---------------------------------|---------------------------------|
B|---------------------------------|---------------------------------|
G|---------------------------------|---------------------------------|
D|-2----2--2-------2---------------|-5-------------------------------|
A|--------------3-------5--5---3---|-----5---5----2--0-----------2---|
E|---------------------------------|----------------------3--3-------|



                                     G
e|---------------------------------|---------------------------------|
B|---------------------------------|---------------------------------|
G|---------------------------------|-----------------------------4---|
D|---------------------------------|----------------------5--5-------|
A|-0----0--5--0--5------2--2---0---|---------------------------------|
E|---------------------------------|-3----3--0----0--3---------------|




  VERSE

  01:19

   G                                 D               G
e|---------------------------------|---------------------------------|
B|-3----3--3-------3---------------|---------3----3------------------|
G|--------------4--------------4---|-2----2----------4-----------4---|
D|----------------------5--5-------|----------------------5--5-------|
A|---------------------------------|---------------------------------|
E|---------------------------------|---------------------------------|



                                     D               G
e|---------------------------------|---------------------------------|
B|-3----3--3-------3---------------|---------3----3----------5-------|
G|--------------4--------------4---|-2----2----------4-----------5---|
D|----------------------5--5-------|---------------------------------|
A|---------------------------------|---------------------------------|
E|---------------------------------|---------------------------------|



   C                                 G               D
e|---------------------------------|---------------------------------|
B|-5----5--5-------5---------------|-8-------------------------------|
G|--------------5-------7--7---5---|------7--7-------------------4---|
D|---------------------------------|--------------9--7----5--5-------|
A|---------------------------------|---------------------------------|
E|---------------------------------|---------------------------------|



                                     G
e|---------------------------------|---------------------------------|
B|---------3-----3-----------------|---------------------------------|
G|-2----2-----2---------2--4---2---|-0----0----------0---------------|
D|---------------------------------|---------2----2------------------|
A|---------------------------------|---------------------------------|
E|---------------------------------|---------------------------------|




  OUTRO


  01:39  ....
comments
We did not receive enough feedback on this tab! Please rate:
print report bad tab
1 2 3 4 5
I want to post or [tab]
guest
You may want to rate the tab now too:
select rating
Please do not post tabs as comments. Select "correction" instead!