Oops, an error
Loading. Please wait.

Perfidia Tab

version 1
version 1

Whole song

Interactive

46,191 views 105 this week
5 commentsread comments
1 2 3 4 5
excellent!
x 9
add to favorites
launch autoscroll
font size
0
reset
how to read this tab
guitar tuner
Tab Pro tools
  • play this tab
  • loop segment
  • change instrument
  • show fretboard
  • metronome
×
Best way to learn
"Perfidia"
Autoscroll
slow
fast
+/-
esc
set tempo
stop
Contributor
Difficulty
Intro
  PM-----------
E----------------|
B----------------|
G----------------|
D----------------|
A-----0-0-2-2-3--|
E-3-3------------|

E--------------------------------------------------------------0---3-|
B-0-1----0-1-3-1-0--0h1--0-----0-1-3-1-0-1--0---1--------------0---0-|
G--------------------------2------------------2----2-0---0-2---1---0-|
D------------------------------------------------------3-----3-2---0-|
A--------------------------------------------------------------2---2-|
E--------------------------------------------------------------0---3-|

E--------------------------------------------------------------0---1---0--|
B-0-1----0-1-3-1-0--0h1--0-----0-1-3-1-0-1--0---1--------------1---1---1--|
G--------------------------2------------------2----2-0---0-2---0---2---0--|
D------------------------------------------------------3-------2---3---2--|
A------------------------------------------------------------2-3---3---3--|
E--------------------------------------------------------------0---1---0--|

E---------------------------------------0-------|
B----------------------------------------0------|
G-----------0-2-2-2-1-2-2-2-1-2-1-2-4-1---1-----|
D-0-2-3-3-3--------------------------------2----|
A-------------------------------------------2---|
E--------------------------------------------0--|

E-------------------------------------0-----------------|
B-0-1-3-3-3-1-0-0-0---0-0-0-1-0-------0-----------------|
G-------------------2-----------2-0---1--------0--------|
D-----------------------------------3-2-----------3--2--|
A-------------------------------------2-----------------|
E-------------------------------------0-----------------|

E--------------------------------------------------------------0---1---0--|
B---1----0-1-3-1-0--0h1--0-----0-1-3-1-0-1--0---1--------------1---1---1--|
G--------------------------2------------------2----2-0---0-2---0---2---0--|
D-0----------------------------------------------------3-------2---3---2--|
A------------------------------------------------------------2-3---3---3--|
E--------------------------------------------------------------0---1---0--|

E-0--0--0--|
B-3--3--1--|
G-4--4--0--|
D-5--5--2--|
A----------|
E----------|

E------------------------------------------------------------------------2-|
B-------------2-3--2-3-5-3-2--2h3--2-----2-3-5-3-2-3--2---3--------------2-|
G---------2-4------------------------4------------------4----4-2---2-4---3-|
D---2-4-5--------------------------------------------------------5-----5-4-|
A-5----------------------------------------------------------------------4-|
E------------------------------------------------------------------------2-|

E-5---------------------------------------------------------------5--3--5--|
B-5----2-3--2-3-5-3-2--2h3--2-----2-3-5-3-2-3--2---3--------------7--3--7--|
G-6---------------------------4------------------4----4-2---2-4---7--3--7--|
D-7-------------------------------------------------------5-------7--5--7--|
A-7-------------------------------------------------------------4-5--5--5--|
E-5---------------------------------------------------------------5--3--5--|

E------------------------------------------------------------------------|
B-----------------------------------2-----2-3-5-5-5-3-2-2-2-0-2-2-2-3-2--|
G-----0-0-0-2-4-4-4-3-4-4-4-3-4-3-4---3----------------------------------|
D-2-4--------------------------------------------------------------------|
A------------------------------------------------------------------------|
E------------------------------------------------------------------------|

E----------------------|
B-0--------------------|
G---2-0---------2-0----|
D-------4-----------4--|
A----------------------|
E----------------------|

E-------------------------------------------------------------|
B-2-3--2-3-5-3-2--2h3--2-----2-3-5-3-2-3--2---3---------------|
G------------------------4------------------4----4-2---2-4----|
D----------------------------------------------------5--------|
A----------------------------------------------------------4--|
E-------------------------------------------------------------|

E------3-3-\-10--|
B--3-3-3-3-\-10--|
G--x-x-4-4-\-11--|
D--4-4-5-5-\-12--|
A--5-5-----------|
E----------------|
comments
print report bad tab
5 comments total. Showing first comments.
+1 reply
the glue man wrote on July 17 2007, 10:28 pm

It'd be a lot cooler if it had the rhythm part. I can't figure out those damn chords!

+2 reply
fenderdude0071 wrote on November 16 2007, 03:43 pm

^^ the chords are C Am Em and G

+2 reply
bigjonny02 wrote on January 6 2009, 10:07 pm

GREAT TAB!!

I want to post or [tab]
guest
You may want to rate the tab now too:
select rating
Please do not post tabs as comments. Select "correction" instead!