Oops, an error
Loading. Please wait.

Pipeline Tab

version 1
version 1

Whole song

Interactive

Video

65,470 views 327 this week
2 commentsread comments
1 2 3 4 5
excellent!
x 21
add to favorites
launch autoscroll
font size
0
reset
how to read this tab
guitar tuner
Autoscroll
slow
fast
+/-
esc
set tempo
stop
Help us to improve Ultimate-Guitar.com Take our survey!
×
Author
PIPELINE


The Ventures


[Intro]

e|---------------------------------|-------------------------------------|
B|---------------------------------|-------------------------------------|
G|---------------------------------|-------------------------------------|
D|---------------------------------|-------------------------------------|
A|---------------------------------|-14--13-12-11-10-9-8-7-6-5-4-3-2-1-0-|
E|---------------------------------|-------------------------------------|


e|---------------------------------|---------------------------------|
B|---------------------------------|---------------------------------|
G|---------------------------------|---------------------------------|
D|---------------------------------|---------------------------------|
A|-----2-------2-------2-------2---|-----2-------2-------2-------2---|
E|-0-------3-------0-------3-------|-0-------3-------0-------3-------|


e|---------------------------------|---------------------------------|
B|---------------------------------|---------------------------------|
G|---------------------------------|---------------------------------|
D|---------------------------------|---------------------------------|
A|-----2-------2-------2-------2---|-----2-------2-------2-------2---|
E|-0-------3-------0-------3-------|-0-------3-------0-------3-------|


e|---------------------------------|---------------------------------|
B|---------------------------------|---------------------------------|
G|---------------------------------|---------------------------------|
D|---------------------------------|---------------------------------|
A|-----2-------2-------2-------2---|-----2-------2-------2-------2---|
E|-0-------3-------0-------3-------|-0-------3-------0-------3-------|

e|0--------------------------------|0--------------------------------|
B|-0-------------------------------|-0-------------------------------|
G|--0------------------------------|--0------------------------------|
D|---2-----------------------------|---2-----------------------------|
A|----2----------------------------|----2----------------------------|
E|-----0---------------------------|-----0---------------------------|


e|---------------------------------|---------------------------------|
B|---------------------------------|---------------------------------|
G|---------------------------------|---------------------------------|
D|---------------------------------|---------------------------------|
A|-----2-------2-------2-------2---|-----2-------2-------2-------2---|
E|-0-------3-------0-------3-------|-0-------3-------0-------3-------|

e|0--------------------------------|0--------------------------------|
B|-0-------------------------------|-0-------------------------------|
G|--0------------------------------|--0------------------------------|
D|---2-----------------------------|---2-----------------------------|
A|----2----------------------------|----2----------------------------|
E|-----0---------------------------|-----0---------------------------|


[Verse]

e|---------------------------------|---------------------------------|
B|---------------------------------|---------------------------------|
G|---------------------------------|---------------------------------|
D|---------0-------2-------0---2---|-4---2---0---2-------4-------2---|
A|-2-------------------------------|---------------------------------|
E|---------------------------------|---------------------------------|

e|0--------------------------------|---------------------------------|
B|-0-------------------------------|---------------------------------|
G|--0------------------------------|---------------------------------|
D|---2-----------------------------|---------------------------------|
A|----2----------------------------|---------------------------------|
E|-----0---------------------------|---------------------------------|


e|---------------------------------|---------------------------------|
B|---------------------------------|---------------------------------|
G|---------------------------------|---------------------------------|
D|-4-------2-------0---2---0-------|---------------------------------|
A|-----------------------------2---|---------------------------------|
E|---------------------------------|---------------------------------|

e|---------------------------------|---------------------7---5---3---|
B|---------------------------------|---------5---8-------------------|
G|---------------------------------|---------------------------------|
D|---------------------------------|-----7---------------------------|
A|---------------------------------|---------------------------------|
E|---------------------------------|---------------------------------|


e|---------------------------------|---------------------------------|
B|---------------------------------|---------------------------------|
G|---------0-------2-------0---2---|-4---2---0---2-------4-------2---|
D|-2-------------------------------|---------------------------------|
A|---------------------------------|---------------------------------|
E|---------------------------------|---------------------------------|

e|-5-------------------------------|---------------------------------|
B|---------------------------------|---------------------------------|
G|---------------------------------|---------------------------------|
D|---------------------------------|---------------------------------|
A|---------------------------------|---------------------------------|
E|---------------------------------|---------------------------------|


e|---------------------------------|---------------------------------|
B|---------------------------------|---------------------------------|
G|-4-------2-------0---2---0-------|---------------------------------|
D|-----------------------------2---|---------------------------------|
A|---------------------------------|---------------------------------|
E|---------------------------------|---------------------------------|

e|---------------------------------|---------5---8-------12--10--8---|
B|---------------------------------|-----5---------------------------|
G|---------------------------------|---------------------------------|
D|---------------------------------|---------------------------------|
A|---------------------------------|---------------------------------|
E|---------------------------------|---------------------------------|


[Chorus]

e|---------------------------------|---------------------------------|
B|---------------------------------|---------------------------------|
G|-4-----4-4---4-------4---4---4---|-5-----5-5---5-------5---5---5---|
D|-4-----4-4---4-------4---4---4---|-5-----5-5---5-------5---5---5---|
A|-2-----2-0---2-------0---2---0---|-3-----3-0---3-------0---3---0---|
E|---------------------------------|---------------------------------|

e|-7-------------------------------|-----3---------------------------|
B|---------------------------------|----5----------------------------|
G|---------------------------------|---5-----------------------------|
D|---------------------------------|--5------------------------------|
A|---------------------------------|-3-------------------------------|
E|---------------------------------|---------------------------------|


e|---------------------------------|---------------------------------|
B|---------------------------------|---------------------------------|
G|-4-----4-4---4-------4---4---4---|-5-----5-5---5-------5---5---5---|
D|-4-----4-4---4-------4---4---4---|-5-----5-5---5-------5---5---5---|
A|-2-----2-0---2-------0---2---0---|-3-----3-0---3-------0---3---0---|
E|---------------------------------|---------------------------------|

e|-----2---------------------------|-----3---------------------------|
B|----4----------------------------|----5----------------------------|
G|---4-----------------------------|---5-----------------------------|
D|--4------------------------------|--5------------------------------|
A|-2-------------------------------|-3-------------------------------|
E|---------------------------------|---------------------------------|

e|---------------------------------|---------------------------------|
B|---------------------------------|---------------------------------|
G|-4-----4-4---4-------4---4---4---|-4-----4-4---4-------4---4---4---|
D|-4-----4-4---4-------4---4---4---|-4-----4-4---4-------4---4---4---|
A|-2-----2-0---2-------0---2---0---|-2-----2-0---2-------0---2---0---|
E|---------------------------------|---------------------------------|

e|-----2---------------------------|-----2---------------------------|
B|----4----------------------------|----4----------------------------|
G|---4-----------------------------|---4-----------------------------|
D|--4------------------------------|--4------------------------------|
A|-2-------------------------------|-2-------------------------------|
E|---------------------------------|---------------------------------|


e|---------------------------------|---------------------------------|
B|---------------------------------|---------------------------------|
G|---------------------------------|-2-------------------------------|
D|-2-----2-0---2-------0---2---0---|-2-------------------------------|
A|-0-----0-0---0-------0---0---0---|-0-------------------------------|
E|---------------------------------|---------------------------------|

e|-----0---------------------------|---------------------------------|
B|----2----------------------------|---------------------------------|
G|---2-----------------------------|---------------------------------|
D|--2------------------------------|---------------------------------|
A|-0-------------------------------|-14--131211109-8-7-6-5-4-3-2-1-0-|
E|---------------------------------|---------------------------------|


[Interlude]

e|---------------------------------|---------------------------------|
B|---------------------------------|---------------------------------|
G|---------------------------------|---------------------------------|
D|---------------------------------|---------------------------------|
A|-----2-------2-------2-------2---|-----2-------2-------2-------2---|
E|-0-------3-------0-------3-------|-0-------3-------0-------3-------|


e|---------------------------------|---------------------------------|
B|---------------------------------|---------------------------------|
G|---------------------------------|---------------------------------|
D|---------------------------------|---------------------------------|
A|-----2-------2-------2-------2---|-----2-------2-------2-------2---|
E|-0-------3-------0-------3-------|-0-------3-------0-------3-------|


e|---------------------------------|---------------------------------|
B|---------------------------------|---------------------------------|
G|---------------------------------|---------------------------------|
D|---------------------------------|---------------------------------|
A|-----2-------2-------2-------2---|-----2-------2-------2-------2---|
E|-0-------3-------0-------3-------|-0-------3-------0-------3-------|

e|0--------------------------------|0--------------------------------|
B|-0-------------------------------|-0-------------------------------|
G|--0------------------------------|--0------------------------------|
D|---2-----------------------------|---2-----------------------------|
A|----2----------------------------|----2----------------------------|
E|-----0---------------------------|-----0---------------------------|


[Verse]

e|---------------------------------|---------------------------------|
B|---------------------------------|---------------------------------|
G|---------------------------------|---------------------------------|
D|---------0-------2-------0---2---|-4---2---0---2-------4-------2---|
A|-2-------------------------------|---------------------------------|
E|---------------------------------|---------------------------------|

e|0--------------------------------|---------------------------------|
B|-0-------------------------------|---------------------------------|
G|--0------------------------------|---------------------------------|
D|---2-----------------------------|---------------------------------|
A|----2----------------------------|---------------------------------|
E|-----0---------------------------|---------------------------------|


e|---------------------------------|---------------------------------|
B|---------------------------------|---------------------------------|
G|---------------------------------|---------------------------------|
D|-4-------2-------0---2---0-------|---------------------------------|
A|-----------------------------2---|---------------------------------|
E|---------------------------------|---------------------------------|

e|---------------------------------|---------------------7---5---3---|
B|---------------------------------|---------5---8-------------------|
G|---------------------------------|---------------------------------|
D|---------------------------------|-----7---------------------------|
A|---------------------------------|---------------------------------|
E|---------------------------------|---------------------------------|


e|---------------------------------|---------------------------------|
B|---------------------------------|---------------------------------|
G|---------0-------2-------0---2---|-4---2---0---2-------4-------2---|
D|-2-------------------------------|---------------------------------|
A|---------------------------------|---------------------------------|
E|---------------------------------|---------------------------------|

e|-5-------------------------------|---------------------------------|
B|---------------------------------|---------------------------------|
G|---------------------------------|---------------------------------|
D|---------------------------------|---------------------------------|
A|---------------------------------|---------------------------------|
E|---------------------------------|---------------------------------|


e|---------------------------------|---------------------------------|
B|---------------------------------|---------------------------------|
G|-4-------2-------0---2---0-------|---------------------------------|
D|-----------------------------2---|---------------------------------|
A|---------------------------------|---------------------------------|
E|---------------------------------|---------------------------------|

e|---------------------------------|---------5---8-------12--10--8---|
B|---------------------------------|-----5---------------------------|
G|---------------------------------|---------------------------------|
D|---------------------------------|---------------------------------|
A|---------------------------------|---------------------------------|
E|---------------------------------|---------------------------------|


[Chorus]

e|---------------------------------|---------------------------------|
B|---------------------------------|---------------------------------|
G|-4-----4-4---4-------4---4---4---|-5-----5-5---5-------5---5---5---|
D|-4-----4-4---4-------4---4---4---|-5-----5-5---5-------5---5---5---|
A|-2-----2-0---2-------0---2---0---|-3-----3-0---3-------0---3---0---|
E|---------------------------------|---------------------------------|

e|-7-------------------------------|-----3---------------------------|
B|---------------------------------|----5----------------------------|
G|---------------------------------|---5-----------------------------|
D|---------------------------------|--5------------------------------|
A|---------------------------------|-3-------------------------------|
E|---------------------------------|---------------------------------|


e|---------------------------------|---------------------------------|
B|---------------------------------|---------------------------------|
G|-4-----4-4---4-------4---4---4---|-5-----5-5---5-------5---5---5---|
D|-4-----4-4---4-------4---4---4---|-5-----5-5---5-------5---5---5---|
A|-2-----2-0---2-------0---2---0---|-3-----3-0---3-------0---3---0---|
E|---------------------------------|---------------------------------|

e|-----2---------------------------|-----3---------------------------|
B|----4----------------------------|----5----------------------------|
G|---4-----------------------------|---5-----------------------------|
D|--4------------------------------|--5------------------------------|
A|-2-------------------------------|-3-------------------------------|
E|---------------------------------|---------------------------------|

e|---------------------------------|---------------------------------|
B|---------------------------------|---------------------------------|
G|-4-----4-4---4-------4---4---4---|-4-----4-4---4-------4---4---4---|
D|-4-----4-4---4-------4---4---4---|-4-----4-4---4-------4---4---4---|
A|-2-----2-0---2-------0---2---0---|-2-----2-0---2-------0---2---0---|
E|---------------------------------|---------------------------------|

e|-----2---------------------------|-----2---------------------------|
B|----4----------------------------|----4----------------------------|
G|---4-----------------------------|---4-----------------------------|
D|--4------------------------------|--4------------------------------|
A|-2-------------------------------|-2-------------------------------|
E|---------------------------------|---------------------------------|


[Bridge]

   A5
e|---------------------------------|---------------------------------|
B|---------------------------------|---------------------5-----------|
G|-5-------------------------------|-------------5-----------7---5---|
D|---------7-------7---------------|-7-------7-----------------------|
A|---------------------------------|---------------------------------|
E|---------------------------------|---------------------------------|

   G5
e|---------------------------------|---------------------------------|
B|---------------------------------|---------------------3-----------|
G|-4-------------------------------|-------------4-----------5---4---|
D|---------5-------5---------------|-5-------5-----------------------|
A|---------------------------------|---------------------------------|
E|---------------------------------|---------------------------------|

   F5
e|---------------------------------|---------------------------------|
B|---------------------------------|---------------------1---0-------|
G|-2-------------------------------|-------------2---------------2---|
D|---------3-------3---------------|-3-------3-----------------------|
A|---------------------------------|---------------------------------|
E|---------------------------------|---------------------------------|

   G5
e|---------------------------------|---------------------------------|
B|---------------------------------|---------------------3-----------|
G|-4-------------------------------|-------------4-----------5---4---|
D|---------5-------5---------------|-5-------5-----------------------|
A|---------------------------------|---------------------------------|
E|---------------------------------|---------------------------------|

   A5
e|---------------------------------|---------------------------------|
B|---------------------------------|---------------------5-----------|
G|-5-------------------------------|-------------5-----------7---5---|
D|---------7-------7---------------|-7-------7-----------------------|
A|---------------------------------|---------------------------------|
E|---------------------------------|---------------------------------|

   G5
e|---------------------------------|---------------------------------|
B|---------------------------------|---------------------3-----------|
G|-4-------------------------------|-------------4-----------5---4---|
D|---------5-------5---------------|-5-------5-----------------------|
A|---------------------------------|---------------------------------|
E|---------------------------------|---------------------------------|

   F5
e|---------------------------------|---------------------------------|
B|---------------------------------|---------------------1---0-------|
G|-2-------------------------------|-------------2---------------2---|
D|---------3-------3---------------|-3-------3-----------------------|
A|---------------------------------|---------------------------------|
E|---------------------------------|---------------------------------|

   E5
e|---------------------------------|---------------------------------|
B|---------------------------------|---------------------------------|
G|-1-------------------------------|---------------------------------|
D|-2-------------------------------|---------------------------------|
A|---------------------------------|---------------------------------|
E|---------------------------------|---------------------------------|

e|---------------------------------|---------------------------------|
B|---------------------------------|---------------------------------|
G|---------------------------------|---------------------------------|
D|---------------------------------|---------------------------------|
A|---------------------------------|-14--131211109-8-7-6-5-4-3-2-1-0-|
E|---------------------------------|---------------------------------|


[Interlude]

e|---------------------------------|---------------------------------|
B|---------------------------------|---------------------------------|
G|---------------------------------|---------------------------------|
D|---------------------------------|---------------------------------|
A|-----2-------2-------2-------2---|-----2-------2-------2-------2---|
E|-0-------3-------0-------3-------|-0-------3-------0-------3-------|


e|---------------------------------|---------------------------------|
B|---------------------------------|---------------------------------|
G|---------------------------------|---------------------------------|
D|---------------------------------|---------------------------------|
A|-----2-------2-------2-------2---|-----2-------2-------2-------2---|
E|-0-------3-------0-------3-------|-0-------3-------0-------3-------|


e|---------------------------------|---------------------------------|
B|---------------------------------|---------------------------------|
G|---------------------------------|---------------------------------|
D|---------------------------------|---------------------------------|
A|-----2-------2-------2-------2---|-----2-------2-------2-------2---|
E|-0-------3-------0-------3-------|-0-------3-------0-------3-------|

e|0--------------------------------|0--------------------------------|
B|-0-------------------------------|-0-------------------------------|
G|--0------------------------------|--0------------------------------|
D|---2-----------------------------|---2-----------------------------|
A|----2----------------------------|----2----------------------------|
E|-----0---------------------------|-----0---------------------------|


e|---------------------------------|---------------------------------|
B|---------------------------------|---------------------------------|
G|---------------------------------|---------------------------------|
D|---------------------------------|---------------------------------|
A|-----2-------2-------2-------2---|-----2-------2-------2-------2---|
E|-0-------3-------0-------3-------|-0-------3-------0-------3-------|

e|0--------------------------------|0--------------------------------|
B|-0-------------------------------|-0-------------------------------|
G|--0------------------------------|--0------------------------------|
D|---2-----------------------------|---2-----------------------------|
A|----2----------------------------|----2----------------------------|
E|-----0---------------------------|-----0---------------------------|


[Verse]

e|---------------------------------|---------------------------------|
B|---------------------------------|---------------------------------|
G|---------------------------------|---------------------------------|
D|---------0-------2-------0---2---|-4---2---0---2-------4-------2---|
A|-2-------------------------------|---------------------------------|
E|---------------------------------|---------------------------------|

e|0--------------------------------|---------------------------------|
B|-0-------------------------------|---------------------------------|
G|--0------------------------------|---------------------------------|
D|---2-----------------------------|---------------------------------|
A|----2----------------------------|---------------------------------|
E|-----0---------------------------|---------------------------------|


e|---------------------------------|---------------------------------|
B|---------------------------------|---------------------------------|
G|---------------------------------|---------------------------------|
D|-4-------2-------0---2---0-------|---------------------------------|
A|-----------------------------2---|---------------------------------|
E|---------------------------------|---------------------------------|

e|---------------------------------|---------------------7---5---3---|
B|---------------------------------|---------5---8-------------------|
G|---------------------------------|-----4---------------------------|
D|---------------------------------|---------------------------------|
A|---------------------------------|---------------------------------|
E|---------------------------------|---------------------------------|


e|---------------------------------|---------------------------------|
B|---------------------------------|---------------------------------|
G|---------0-------2-------0---2---|-4---2---0---2-------4-------2---|
D|-2-------------------------------|---------------------------------|
A|---------------------------------|---------------------------------|
E|---------------------------------|---------------------------------|

e|-5-------------------------------|---------------------------------|
B|---------------------------------|---------------------------------|
G|---------------------------------|---------------------------------|
D|---------------------------------|---------------------------------|
A|---------------------------------|---------------------------------|
E|---------------------------------|---------------------------------|


e|---------------------------------|---------------------------------|
B|---------------------------------|---------------------------------|
G|-4-------2-------0---2---0-------|---------------------------------|
D|-----------------------------2---|---------------------------------|
A|---------------------------------|---------------------------------|
E|---------------------------------|---------------------------------|

e|---------------------------------|---------5---8-------12--10--8---|
B|---------------------------------|-----5---------------------------|
G|---------------------------------|---------------------------------|
D|---------------------------------|---------------------------------|
A|---------------------------------|---------------------------------|
E|---------------------------------|---------------------------------|


[Chorus]

e|---------------------------------|---------------------------------|
B|---------------------------------|---------------------------------|
G|-4-----4-4---4-------4---4---4---|-5-----5-5---5-------5---5---5---|
D|-4-----4-4---4-------4---4---4---|-5-----5-5---5-------5---5---5---|
A|-2-----2-0---2-------0---2---0---|-3-----3-0---3-------0---3---0---|
E|---------------------------------|---------------------------------|

e|-7-------------------------------|-----3---------------------------|
B|---------------------------------|----5----------------------------|
G|---------------------------------|---5-----------------------------|
D|---------------------------------|--5------------------------------|
A|---------------------------------|-3-------------------------------|
E|---------------------------------|---------------------------------|


e|---------------------------------|---------------------------------|
B|---------------------------------|---------------------------------|
G|-4-----4-4---4-------4---4---4---|-5-----5-5---5-------5---5---5---|
D|-4-----4-4---4-------4---4---4---|-5-----5-5---5-------5---5---5---|
A|-2-----2-0---2-------0---2---0---|-3-----3-0---3-------0---3---0---|
E|---------------------------------|---------------------------------|

e|-----2---------------------------|-----3---------------------------|
B|----4----------------------------|----5----------------------------|
G|---4-----------------------------|---5-----------------------------|
D|--4------------------------------|--5------------------------------|
A|-2-------------------------------|-3-------------------------------|
E|---------------------------------|---------------------------------|

e|---------------------------------|---------------------------------|
B|---------------------------------|---------------------------------|
G|-4-----4-4---4-------4---4---4---|-4-----4-4---4-------4---4---4---|
D|-4-----4-4---4-------4---4---4---|-4-----4-4---4-------4---4---4---|
A|-2-----2-0---2-------0---2---0---|-2-----2-0---2-------0---2---0---|
E|---------------------------------|---------------------------------|

e|-----2---------------------------|-----2---------------------------|
B|----4----------------------------|----4----------------------------|
G|---4-----------------------------|---4-----------------------------|
D|--4------------------------------|--4------------------------------|
A|-2-------------------------------|-2-------------------------------|
E|---------------------------------|---------------------------------|


e|---------------------------------|---------------------------------|
B|---------------------------------|---------------------------------|
G|---------------------------------|-2-------------------------------|
D|-2-----2-0---2-------0---2---0---|-2-------------------------------|
A|-0-----0-0---0-------0---0---0---|-0-------------------------------|
E|---------------------------------|---------------------------------|

e|-----0---------------------------|-------------------------------------|
B|----2----------------------------|-------------------------------------|
G|---2-----------------------------|-------------------------------------|
D|--2------------------------------|-------------------------------------|
A|-0-------------------------------|-14--13-12-11-10-9-8-7-6-5-4-3-2-1-0-|
E|---------------------------------|-------------------------------------|


e|---------------------------------|----------0----------------------|
B|---------------------------------|-0-------------------------------|
G|-----------------------0---------|---------------------------------|
D|---------------0-----------------|---------------------------------|
A|-------2-------------------------|---------------------------------|
E|-0-------------------------------|---------------------------------|
Suggest correction
comments
print report bad tab
2 comments total.
0 reply
lordkrondor 10 wrote on March 10 2013, 05:44 pm

100% Very Accurate, loved the bridge part. Thank you for posting.

0 reply
mapophal 10 wrote on February 8 2014, 09:14 am, edited at 09:18 am

Two thumbs up. I think it's awsome :D

guest
You may want to rate the tab now too:
select rating
Please do not post tabs as comments. Select "correction" instead!