Oops, an error
Loading. Please wait.

Road Runner Tab

2,617 views 1 this week
no commentswrite comment
1 2 3 4 5
please rate
add to favorites
launch autoscroll
font size
0
reset
how to read this tab
guitar tuner
Tab Pro tools
  • play this tab
  • loop segment
  • change instrument
  • show fretboard
  • metronome
×
Best way to learn
"Road Runner"
Autoscroll
slow
fast
+/-
esc
set tempo
stop
Contributor
here's a cool surf song, pretty simple blues structure
G-G--G--G-G--G--C-C--C--C-C--C--G-G--G--
D-D--D--C-C--C--G-G--G--D-D-D-D-D-D-D

             "ROAD RUNNER" by The Ventures

|--3-3---3---3-3---3---3-3---3---3-3---3-|
|--3-3---3---3-3---3---3-3---3---3-3---3-|
|--4-4---4---4-4---4---4-4---4---4-4---4-|
|--5-5---5---5-5---5---5-5---5---5-5---5-|
|----------------------------------------|
|----------------------------------------|

|--8--8----8----8--8----8--|-3-3---3---3-3---3-|
|--8--8----8----8--8----8--|-3-3---3---3-3---3-|
|--9--9----9----9--9----9--|-4-4---4---4-4---4-|
|--10-10---10---10-10---10-|-5-5---5---5-5---5-|
|--------------------------|-------------------|
|--------------------------|-------------------|

|--10-10---10---8-8---8---|-3-3---3-|
|--10-10---10---8-8---8---|-3-3---3-|
|--11-11---11---9-9---9---|-4-4---4-|
|--12-12---12--10-10--10--|-5-5---5-|
|-------------------------|---------|
|-------------------------|---------|

|--10-10-10-10-10-10-10-|
|--10-10-10-10-10-10-10-|
|--11-11-11-11-11-11-11-|
|--12-12-12-12-12-12-12-|
|-----------------------|
|-----------------------|
one guitar repeats this and the other plays:
|-------------------------------------|-----------------------------------|
|-------------------------------------|-----------------------------------|
|-------------------------------------|-----------------------------------|
|-------------------------------------|-----------------------------------|
|----------3h5-3----------------------|---------3h5-3---------------------|
|--3--3--6--------6--3-3--1--3--1-3-1-|-3--3--6-------6--3-3--1--3--1-3-1-|

|-------------------------------------|-----------------------------------|
|-------------------------------------|-----------------------------------|
|-------------------------------------|-----------------------------------|
|----------3h5-3----------------------|---------3h5-3---------------------|
|--3--3--6--------6--3-3--1--3--1-3-1-|-3--3--6-------6--3-3--1--3--1-3-1-|
|-------------------------------------|-----------------------------------|

|-------------------------------------|
|-------------------------------------|
|-------------------------------------|
|-------------------------------------|
|----------3h5-3----------------------|
|--3--3--6--------6--3-3--1--3--1-3-1-|


|--10-10---10---8-8---8---|-3-3---3-|
|--10-10---10---8-8---8---|-3-3---3-|
|--11-11---11---9-9---9---|-4-4---4-|
|--12-12---12--10-10--10--|-5-5---5-|
|-------------------------|---------|
|-------------------------|---------|

|--10-10-10-10-10-10-10-|
|--10-10-10-10-10-10-10-|
|--11-11-11-11-11-11-11-|
|--12-12-12-12-12-12-12-|
|-----------------------|
|-----------------------|

and i'll add the solo later because i'm in school!
-Bert
comments
We did not receive enough feedback on this tab! Please rate:
print report bad tab
1 2 3 4 5
I want to post or [tab]
guest
You may want to rate the tab now too:
select rating
Please do not post tabs as comments. Select "correction" instead!