Oops, an error
Loading. Please wait.

Runaway Tab

version 2
version 2

Whole song

Interactive

955 views 12 this week
no commentswrite comment
1 2 3 4 5
excellent!
x 1
add to favorites
launch autoscroll
font size
0
reset
how to read this tab
guitar tuner
Tab Pro tools
  • play this tab
  • loop segment
  • change instrument
  • show fretboard
  • metronome
Autoscroll
slow
fast
+/-
esc
set tempo
stop
Contributor
Difficulty
novice
                                  Ventures
                                   Runaway

e|---------------0-----------------|
B|-------------1---1---------------|
G|-----------2---------------------|  4 times
D|---------2-----------------------|
A|------0--------------------------|
E|-0-3b----------------------------|

e|---------------------------------|---------------------------------|
B|---------------------------------|-------0-3-1-1-2---------1-1-0---|
G|--------4---4-5--7/9-7-----------|-2-0-2---------------0-2---------|
D|---5/7----7------------9---------|-------------------3-------------|
A|---------------------------------|---------------------------------|
E|---------------------------------|---------------------------------|

e|-------7-----7-8--10/12-10-------|----------7-10-9-9-5--------5-8-5/6/5---|
B|--8/10---10----------------12----|--10-8-10-------------8-6-8-------------|
G|---------------------------------|----------------------------------------|
D|---------------------------------|----------------------------------------|
A|---------------------------------|----------------------------------------|
E|---------------------------------|----------------------------------------|

e|---------------------------------|---------------------------------|
B|---------------------------------|---------------------------------|
G|---------------------------------|---------------------------------|
D|-2-2-0-0-----------2-------------|--------4-2--4-2---2-4-2---------|
A|---------3-3-2-2-0----4-2-0-2-4--|-0---------------4-------4-------|
E|---------------------------------|---4-2----------------------0-2-4|

e|---------------------------------|---------------------------------|
B|---------------------------------|---------------------------------|
G|---------------------------------|---------------------------------|
D|---------2-----------------------|-4--2-----4-2--------------------|
A|-------0--4-2-0-2-4-----0--------|-------4------2---2--0-----------|
E|--------------------------4-2----|---------------------------------|

e|-9-------------------------------|-9-------------------------------------|
B|-10--12-10-9---------------------|-10--12-10-9--7--5-7-5---5/7---5-------|
G|-9-----------11-9h-6-------------|-9---------------------6---------6-4-2-|
D|---------------------------------|---------------------------------------|
A|--------------------------2-0----|---------------------------------------|
E|---------------------------------|---------------------------------------|

e|---------------------------------|---------------------------------|
B|------------5-2-2----------------|---------------------------------|
G|-------2-4-----------------------|-------2---4-2-2-----------------|
D|-2/4-4---------------------------|-2-2-4---------------------------|
A|---------------------------------|---------------------------------|
E|---------------------------------|---------------------------------|

                D
e|--2-2-2-2-2-2--------------------|---------------------------------|
B|--3-3-3-3-3-3--------------------|---------------------------------|
G|--2-2-2-2-2-2---4-2--2-----------|---------------------------------|
D|---------------------------------|---------------------------------|
A|---------------------------------|---------------------------------|
E|---------------------------------|---------------------------------|


                                 Intrulude
e|--5-4/5-----5--4/5-----5---------|--2/3----------------------2/3---|
B|--5-4/5--5-----4/5--5------------|-------2/3-------------2/3-------|
G|-----------5----------5----------|-----------4/5-----4/5-----------|
D|---------------------------------|---------------5/6---------------|
A|---------------------------------|---------------------------------|
E|---------------------------------|---------------------------------|

e|--1-0-1-------1--0-1-------0--0--0-----------|---------------------------|
B|--------1---1--------1---1---------3-1-0-----|---------------------------|
G|----------2------------2---------------------|---------------------------|
D|---------------------------------------------|---------------------------|
A|---------------------------------------------|---------------------------|
E|---------------------------------------------|---------------------------|

       play intrulude 2 times

e|---------------------------------|---------------------------------|
B|---------------------------------|---------------------------------|
G|---------------------------------|---------------------------------|
D|-2-2-0-0-------------------------|--------4-2--4-2---2-4-2---------|
A|---------4-4-2-2----0-2-4--------|-0---------------4-------4-------|
E|---------------------------------|---4-2----------------------0-2-4|

e|---------------------------------|---------------------------------|
B|---------------------------------|---------------------------------|
G|---------------------------------|---------------------------------|
D|---------2-----------------------|-4--2-----4-2--------------------|
A|-------0--4-2-0-2-4-----0--------|-------4------2---2--0-----------|
E|--------------------------4-2----|---------------------------------|

e|-9-------------------------------|-9-------------------------------------|
B|-10--12-10-9---------------------|-10--12-10-9--7--5-7-5---5/7---5-------|
G|-9-----------11-9h-6-------------|-9---------------------6---------6-4-2-|
D|---------------------------------|---------------------------------------|
A|--------------------------2-0----|---------------------------------------|
E|---------------------------------|---------------------------------------|

e|---------------------------------|---------------------------------|
B|------------5-2-2----------------|---------------------------------|
G|-------2-4-----------------------|-------2---4-2-2-----------------|
D|-2/4-4---------------------------|-2-2-4---------------------------|
A|---------------------------------|---------------------------------|
E|---------------------------------|---------------------------------|

                D
e|--2-2-2-2-2-2--------------------|
B|--3-3-3-3-3-3--------------------|
G|--2-2-2-2-2-2---4-2--2-----------| 3 times
D|---------------------------------|
A|---------------------------------|
E|---------------------------------|


e|-5/4/5---------------------------|
B|-5/4/5---------------------------|
G|-5/4/5---------------------------|
D|---------------------------------|
A|---------------------------------|
E|---------------------------------|
comments
We did not receive enough feedback on this tab! Please rate:
print report bad tab
1 2 3 4 5
I want to post or [tab]
guest
You may want to rate the tab now too:
select rating
Please do not post tabs as comments. Select "correction" instead!