Oops, an error
Loading. Please wait.

Secret Agent Man Bass Tab

version 1
version 1

Whole song

Interactive

4,395 views 12 this week
no commentswrite comment
1 2 3 4 5
excellent!
x 3
add to favorites
launch autoscroll
font size
0
reset
guitar tuner
Tab Pro tools
  • play this tab
  • loop segment
  • change instrument
  • show fretboard
  • metronome
×
Best way to learn
"Secret Agent Man"
Autoscroll
slow
fast
+/-
esc
set tempo
stop
Contributor
SECRET AGENT MAN

The Ventures

INTRO

G|---------------------------------|-------------------------12\-----|
D|---------------------------------|---------------------------------|
A|---------------------------------|---------------------------------|
E|---------------------------------|---------------------------------|

G|---------------------------------|---------------------------------|
D|---------------------------------|---------------------------------|
A|-7-------------------------------|-7-----------------------5-------|
E|-------------7---7---------------|-------------7---7---------------|

G|---------------------------------|---------------------------------|
D|---------------------------------|---------------------------------|
A|-7-------------------------------|-7-------------------------------|
E|-------------7---7---------------|-------------7---7---------------|

G|---------------------------------|---------------------------------|
D|---------------------------------|---------------------------------|
A|-7-------------------------------|-7-----------------------5-------|
E|-------------7---7---------------|-------------7---7---------------|

VERSE

G|---------------------------------|---------------------------------|
D|---------------------------------|-7-----------------------7-------|
A|-7-------------------------------|-------------7---7---------------|
E|-------------7---7---------------|---------------------------------|

G|---------------------------------|---------------------------------|
D|---------------------------------|---------------------------------|
A|-7-----------------------7-------|-7-----------------------7-------|
E|-------------7---7---------------|-------------7---7---------------|

G|---------------------------------|---------------------------------|
D|---------------------------------|---------------------------------|
A|-7-------------------------------|-7-------------------------------|
E|-------------7---7---------------|-------------7---7---------------|

G|---------------------------------|---------------------------------|
D|-9-------------------------------|-9-------------------------------|
A|-------------9---9---------------|-------------9---9-------8-------|
E|---------------------------------|---------------------------------|

G|---------------------------------|---------------------------------|
D|---------------------------------|---------------------------------|
A|-7-------------------------------|-7-----------------------7-------|
E|-------------7---7---------------|-------------7---7---------------|

G|---------------------------------|---------------------------------|
D|-7-------------------------------|-7-----------------------7-------|
A|-------------7---7---------------|-------------7---7---------------|
E|---------------------------------|---------------------------------|

G|---------------------------------|---------------------------------|
D|---------------------------------|-9-----------------------9-------|
A|-7-------------------------------|-------------9---9---------------|
E|-------------7---7---------------|---------------------------------|

G|---------------------------------|-------------------------12\-----|
D|---------------------------------|---------------------------------|
A|-7-----------------------5-------|-7-------------------------------|
E|-------------7---7---------------|---------------------------------|

CHORUS

G|---------------------------------|---------------------------------|
D|-9-----------------------9-------|---------------------------------|
A|-------------9---9---------------|-7-----------------------7-------|
E|---------------------------------|-------------7---7---------------|

G|---------------------------------|---------------------------------|
D|-9-----------------------9-------|---------------------------------|
A|-------------9---9---------------|-7-----------------------7-------|
E|---------------------------------|-------------7---7---------------|

G|---------------------------------|---------------------------------|
D|-7-------------------------------|-7-------------------------------|
A|-------------7---7---------------|-------------7---7---------------|
E|---------------------------------|---------------------------------|

G|---------------------------------|---------------------------------|
D|---------------------------------|---------------------------------|
A|-7-------------------------------|-7-------------------------------|
E|-------------7---7---------------|-------------7---7---------------|

G|---------------------------------|---------------------------------|
D|-9-----------------------9-------|---------------------------------|
A|-------------9---9---------------|-7-----------------------7-------|
E|---------------------------------|-------------7---7---------------|

G|---------------------------------|---------------------------------|
D|-9-----------------------9-------|---------------------------------|
A|-------------9---9---------------|-7-----------------------7-------|
E|---------------------------------|-------------7---7---------------|

G|---------------------------------|---------------------------------|
D|---------------------------------|---------------------------------|
A|-2-----------------------2-------|-0-----------------------0-------|
E|-------------2---2---------------|-------------0---0---------------|

G|---------------------------------|---------------------------------|
D|---------------------------------|---------------------------------|
A|-7-----------------------5-------|-7-----------------------7-------|
E|-------------7---7---------------|-------------7---7---------------|

G|---------------------------------|---------------------------------|
D|-9-----------------------9-------|---------------------------------|
A|-------------9---9---------------|-7-----------------------5-------|
E|---------------------------------|-------------7---7---------------|

INTERLUDE

G|---------------------------------|-------------------------12\-----|
D|---------------------------------|---------------------------------|
A|-7-------------------------------|---------------------------------|
E|---------------------------------|---------------------------------|

G|---------------------------------|---------------------------------|
D|---------------------------------|---------------------------------|
A|-7-------------------------------|-7-----------------------5-------|
E|-------------7---7---------------|-------------7---7---------------|

VERSE

G|---------------------------------|---------------------------------|
D|---------------------------------|-7-----------------------7-------|
A|-7-----------------------7-------|-------------7---7---------------|
E|-------------7---7---------------|---------------------------------|

G|---------------------------------|---------------------------------|
D|---------------------------------|---------------------------------|
A|-7-----------------------5-------|-7-------------------------------|
E|-------------7---7---------------|-------------7---7---------------|

G|---------------------------------|---------------------------------|
D|---------------------------------|-----------------5-------7-------|
A|-7-------------------------------|-7-------------------------------|
E|-------------7---7---------------|---------------------------------|

G|---------------------------------|---------------------------------|
D|-9-------------------------------|-9-----------------------7\------|
A|-------------9---9---------------|-------------9---9---------------|
E|---------------------------------|---------------------------------|

G|---------------------------------|---------------------------------|
D|---------------------------------|---------------------------------|
A|-7-------------------------------|-7-----------------------7-------|
E|-------------7---7---------------|-------------7---7---------------|

G|---------------------------------|---------------------------------|
D|-7-------------------------------|-7-----------------------7-------|
A|-------------7---7---------------|-------------7---7---------------|
E|---------------------------------|---------------------------------|

G|---------------------------------|---------------------------------|
D|---------------------------------|-9-----------------------9-------|
A|-7-----------------------7-------|-------------9---9---------------|
E|-------------7---7---------------|---------------------------------|

G|---------------------------------|-------------------------12\-----|
D|---------------------------------|---------------------------------|
A|-7-----------------------5-------|-7-------------------------------|
E|-------------7---7---------------|---------------------------------|

CHORUS

G|---------------------------------|---------------------------------|
D|-9-----------------------9-------|---------------------------------|
A|-------------9---9---------------|-7-----------------------7-------|
E|---------------------------------|-------------7---7---------------|

G|---------------------------------|---------------------------------|
D|-9-----------------------9-------|---------------------------------|
A|-------------9---9---------------|-7-----------------------7-------|
E|---------------------------------|-------------7---7---------------|

G|---------------------------------|---------------------------------|
D|-7-------------------------------|-7-----------------------7-------|
A|-------------7---7---------------|-------------7---7---------------|
E|---------------------------------|---------------------------------|

G|---------------------------------|---------------------------------|
D|---------------------------------|---------------------------------|
A|-7-------------------------------|-7-----------------------7-------|
E|-------------7---7---------------|-------------7---7---------------|

G|---------------------------------|---------------------------------|
D|-9-----------------------9-------|---------------------------------|
A|-------------9---9---------------|-7-----------------------7-------|
E|---------------------------------|-------------7---7---------------|

G|---------------------------------|---------------------------------|
D|-9-----------------------9-------|---------------------------------|
A|-------------9---9---------------|-7-----------------------7-------|
E|---------------------------------|-------------7---7---------------|

G|---------------------------------|---------------------------------|
D|---------------------------------|---------------------------------|
A|-2-----------------------2-------|-0-----------------------0-------|
E|-------------2---2---------------|-------------0---0---------------|

G|---------------------------------|---------------------------------|
D|---------------------------------|---------------------------------|
A|-7-----------------------5-------|-7-----------------------7-------|
E|-------------7---7---------------|-------------7---7---------------|

G|---------------------------------|---------------------------------|
D|-9-----------------------9-------|---------------------------------|
A|-------------9---9---------------|-7-----------------------5-------|
E|---------------------------------|-------------7---7---------------|

OUTRO

G|---------------------------------|---------------------------------|
D|---------------------------------|---------------------------------|
A|-7-------------------------------|-7-----------------------5-------|
E|-------------7---7---------------|-------------7---7---------------|

G|---------------------------------|---------------------------------|
D|---------------------------------|---------------------------------|
A|-7-------------------------------|-7-------------------------------|
E|-------------7---7---------------|-------------7---7---------------|

G|---------------------------------|---------------------------------|
D|---------------------------------|---------------------------------|
A|-7-------------------------------|-7-------------------------------|
E|-------------7---7---------------|-------------7---7---------------|

G|---------------------------------|---------------------------------|
D|---------------------------------|---------------------------------|
A|-7-------------------------------|-7-----------------------5-------|
E|-------------7---7---------------|-------------7---7---------------|

G|---------------------------------|---------------------------------|
D|---------------------------------|---------------------------------|
A|-7-------------------------------|-7-------------------------------|
E|-------------7---7---------------|-------------7---7---------------|

G|---------------------------------|---------------------------------|
D|---------------------------------|---------------------------------|
A|-7-------------------------------|-7-------------------------------|
E|-------------7---7---------------|-------------7---7---------------|
                                                             FADE OUT
comments
We did not receive enough feedback on this tab! Please rate:
print report bad tab
1 2 3 4 5
I want to post or [tab]
guest
You may want to rate the tab now too:
select rating
Please do not post tabs as comments. Select "correction" instead!