Oops, an error
Loading. Please wait.

Sleepwalk Tab

26,767 views 42 this week
1 commentread comment
1 2 3 4 5
accurate
x 10
add to favorites
launch autoscroll
font size
0
reset
how to read this tab
guitar tuner
Tab Pro tools
  • play this tab
  • loop segment
  • change instrument
  • show fretboard
  • metronome
Autoscroll
slow
fast
+/-
esc
set tempo
stop
Contributor
SLEEPWALK

The Ventures

INTRO

E|------0------------------------------|
B|---------0---------------------------|
G|-0h2---------------------------------|   x2
D|--------------------------0h1--2-----|
A|-----------------3--3--3-------------|
E|-----------------1--1--1-------------|

VERSE

E|-8-----------------1--3--3/4--3---1---|
B|-------\8--8-------3--5--5/6--5---3---|
G|--------------------------------------|
D|--------------------------------------|
A|--------------------------------------|
E|--------------------------------------|

E|-/8-----3h5--3h5--3-----1--3--3/4--3---1---|
B|------------------------3--5--5/6--5---3---|
G|-------------------------------------------|
D|-------------------------------------------|
A|-------------------------------------------|
E|-------------------------------------------|

E|-3-------3------------------------------------------------|
B|------5-----5--1-----------1--1--3-/-5--5---5-\-1--1------|
G|------------------2--------2--2--2-/-4--4---4-\-0--0------|
D|---------------------------3--3--3-/-5--5---5-\-2--2------|
A|----------------------------------------------------------|
E|----------------------------------------------------------|

E|------0--------------------|
B|---------0-----------------|
G|-0h2-----------------------|
D|---------------------------|
A|---------------0--1--2-----|
E|---------------------------|

VERSE

E|-8-----------------1--3--3/4--3---1---|
B|-------\8--8-------3--5--5/6--5---3---|
G|--------------------------------------|
D|--------------------------------------|
A|--------------------------------------|
E|--------------------------------------|

E|-/8-----3h5--3h5--3-----1--3--3/4--3---1---|
B|------------------------3--5--5/6--5---3---|
G|-------------------------------------------|
D|-------------------------------------------|
A|-------------------------------------------|
E|-------------------------------------------|

E|-3-------3------------------------------------------------|
B|------5-----5--1-----------1--1--3-/-5--5---5-\-1--1------|
G|------------------2--------2--2--2-/-4--4---4-\-0--0------|
D|---------------------------3--3--3-/-5--5---5-\-2--2------|
A|----------------------------------------------------------|
E|----------------------------------------------------------|

E|--------------------------------------|
B|-1---1-------1---1--------------------|
G|-2---2----2--0---0--3---3--2---2--0---|
D|-3---3-------2---2--------------------|
A|--------------------------------------|
E|--------------------------------------|

BRIDGE

E|-----------------------------------------------|
B|-0--1---1----3/5---3----1-----------3/5---3----|
G|-1--2---2---------------2--1---1---------------|
D|-----------------------------------------------|
A|-----------------------------------------------|
E|-----------------------------------------------|

E|--------------------------------------------|
B|-1-------------------------------------1----|
G|-2--0-----0--0--2--------2--0--------3------|
D|----------------------2------------2--------|
A|---------------------------------3----------|
E|--------------------------------------------|

E|--------------------------------------------------|
B|-------1-----1--3/5---3----1-----------3/5---3----|
G|-0--1--2-----2-------------2--1---1---------------|
D|--------------------------------------------------|
A|--------------------------------------------------|
E|--------------------------------------------------|

E|----------------------------------------1------|
B|-1------------------------------------0--------|
G|-2--0----0---0--3---3---3--3--0-----0----------|
D|-----------------------------------------------|
A|-----------------------------------------------|
E|-----------------------------------------------|

VERSE

E|-8-----------------1--3--3/4--3---1---|
B|-------\8--8-------3--5--5/6--5---3---|
G|--------------------------------------|
D|--------------------------------------|
A|--------------------------------------|
E|--------------------------------------|

E|-/8-----3h5--3h5--3-----1--3--3/4--3---1---|
B|------------------------3--5--5/6--5---3---|
G|-------------------------------------------|
D|-------------------------------------------|
A|-------------------------------------------|
E|-------------------------------------------|

E|-3-------3---------------------------------------------------|
B|------5-----5--1-----------1--1--3-/-5--5---5-\-1-----1------|
G|------------------2--------2--2--2-/-4--4---4-\-0----0-------|
D|---------------------------3--3--3-/-5--5---5-\-2---2--------|
A|-------------------------------------------------------------|
E|-------------------------------------------------------------|

E|------------------------3-----|
B|-1---1----1--1--------3-------|
G|-2---2----2--0------4---------|
D|-3---3----3--2----5-----------|
A|------------------------------|
E|------------------------------|

OUTRO

E|------0------------------------------|
B|---------0---------------------------|
G|-0h2---------------------------------|   repeat & fade out
D|--------------------------0h1--2-----|
A|-----------------3--3--3-------------|
E|-----------------1--1--1-------------|
comments
print report bad tab
1 comment total.
0 reply
resumeman wrote on October 26 2011, 12:53 pm

Hey that's a fun tab. Easy.

I want to post or [tab]
guest
You may want to rate the tab now too:
select rating
Please do not post tabs as comments. Select "correction" instead!