Oops, an error
Loading. Please wait.

Sleigh Ride Tab

version 2
version 2

Whole song

3,336 views 36 this week
no commentswrite comment
1 2 3 4 5
2 more votes to show rating
add to favorites
launch autoscroll
font size
0
reset
how to read this tab
guitar tuner
Autoscroll
slow
fast
+/-
esc
set tempo
stop
Help us to improve Ultimate-Guitar.com Take our survey!
×
Author
THE VENTURES-SLEIGH RIDE


Intro: same as Walk Dont Run

1st verse: Play using G Major(?) scale, not really familiar with scales but
           it looks more like a G Major scale...then comes this part

e :------------------------------------------------------|
B :-----------5----------5---------5---5^7--4------------|
G :--------6-----------6---------6-----------------------|
D :---5\7---------5\7-------5\7--------------------------|
A :------------------------------------------------------|
E :------------------------------------------------------|

                                                     trem
e :------------------------------------------------------|
B :---5--4------------------5--4-----------5--4--7---9---|
G :---------6------6--------------6-----6------------9---|
D :------------6---------------------7---------------9---|
A :--------------------------------------------------7---|
E :--------------------------------------------------0---|


e :--------------10----------------10-------------10---10^12--9------|
B :----------12----------------12--------------12--------------------|
G :---10\12-------------10\12-----------10/12------------------------|
D :------------------------------------------------------------------|
A :------------------------------------------------------------------|
E :------------------------------------------------------------------|


e :---10--9----------------------------------------------|
B :----------10------12----------------------------------|
G :--------------11--------------------------------------|
D :------------------------------------------------------|
A :------------------------------------------------------|
E :------------------------------------------------------|


e :---10--------------------10---------------------10-15-10----------|
B :------10--------------10----10---------------10-------------------|
G :---------12-----12-------------12---------12--------------12------|
D :------------12-------------------------12-------------------------|
A :------------------------------------------------------------------|
E :------------------------------------------------------------------|

Notes:

\ slide
^ hammer on

Then back to 1st verse again, do it all over again, then go up 2 octave.

Not sure how accurate this is but kinda sounds like it. Enjoy
Suggest correction
Give kudos to tab author, rate the tab!
1 2 3 4 5
comments
print report bad tab
guest
You may want to rate the tab now too:
select rating
Wanna post a correction for this tab? Suggest correction