Oops, an error
Loading. Please wait.

Strawberry Fields Forever Bass Tab

1,670 views 1 this week
no commentswrite comment
1 2 3 4 5
1 last vote to show rating
add to favorites
launch autoscroll
font size
0
reset
guitar tuner
Autoscroll
slow
fast
+/-
esc
set tempo
stop
Help us to improve Ultimate-Guitar.com Take our survey!
×
Author
STRAWBERRY FIELDS FOREVER


The Ventures



  INTRO



G|---------------------------------|--------------------------------|
D|---------------------------------|--------------------------------|
A|---------------------------------|--------------------------------|
E|---------------------------------|--------------------------------|





G|---------------------------------|-----------------|
D|---------------------------------|-----------------|
A|---------------------------------|-----------------|
E|---------------------------------|-----------------|





G|---------------------------------|--------------------------------|
D|---------------------------------|-----------------8-\--------6---|
A|---------------------------------|--------------------------------|
E|---------------------------------|--------------------------------|





  CHORUS



G|---------------------------------|---------------------------------|
D|-6-----------6-------------------|-6-----------6-------6---6---6---|
A|-----------------6-----------6---|-----------------6-----6---6---6-|
E|---------------------------------|---------------------------------|





G|---------------------------------|---------------------------------|
D|-5-----------5-------------------|-5-----------5-------5---5---5---|
A|-----------------5-----------5---|-----------------5-----5---5-----|
E|---------------------------------|---------------------------------|





G|-----------------|---------------------------------|
D|-------------3---|-5-----------------------5-------|
A|-6---------------|-----------------6---------------|
E|-----------------|---------------------------------|





G|---------------------------------|---------------------------------|
D|---------------------------------|---------------------------------|
A|-6---------------5-----------3---|-1-------------------------------|
E|---------------------------------|---------------------------------|





  VERSE



G|---------------------------------|---------------------------------|
D|---------------------------------|---------------------------------|
A|---------------------------------|---------------------------------|
E|---------------------------------|---------------------------------|





G|---------------------------------|---------------------------------|
D|---------------------------------|---------------------------------|
A|---------------------------------|---------------------------------|
E|---------------------------------|-----------------3-------1-------|





G|---------------------------------|---------------------------------|
D|---------------------------------|-8---------------5-------3-------|
A|-6---6-------6---8---------------|---------------------------------|
E|---------------------------------|---------------------------------|





G|---------------------------------|---------3-----------------------|
D|---------------------------------|-----5-------5-----------3-------|
A|-6---6-----------8---------------|-6-------------------5-------5---|
E|---------------------------------|-----------------6---------------|





G|---------------------------------|---------------------------------|
D|---------------------------------|-----------------8-\---------6---|
A|---------------------------------|---------------------------------|
E|-6-------------------------------|---------------------------------|





  CHORUS



G|---------------------------------|---------------------------------|
D|-6-----------6-------------------|-6-----------6-------6---6---6---|
A|-----------------6-----------6---|-----------------6-----6---6---6-|
E|---------------------------------|---------------------------------|





G|---------------------------------|---------------------------------|
D|-5-----------5-------------------|-5-----------5-------5---5---5---|
A|-----------------5-----------5---|-----------------5---------5---5-|
E|---------------------------------|---------------------------------|





G|-----------------|---------------------------------|
D|-------------3---|-5-----------5-----------5-------|
A|-6---------------|-----------------6---------------|
E|-----------------|---------------------------------|





G|---------------------------------|---------------------------------|
D|---------------------------------|---------------------------------|
A|-6---------------5-----------3---|-1-------------------------------|
E|---------------------------------|---------------------------------|





G|---------------------------------|
D|---------------------------------|
A|---------------------------------|
E|---------------------------------|





  VERSE



G|---------------------------------|---------------------------------|
D|---------------------------------|---------------------------------|
A|---------------------------------|---------------------------------|
E|---------------------------------|---------------------------------|





G|---------------------------------|---------------------------------|
D|---------------------------------|-----------------5-------3-------|
A|---------------------------------|---------------------------------|
E|---------------------------------|---------------------------------|





G|---------------------------------|---------------------------------|
D|---------------------------------|-----------------5-------3-------|
A|-6-----------6---8---------------|---------------------------------|
E|---------------------------------|-6-------------------------------|





G|---------------------------------|---------3-----------------------|
D|---------------------------------|-----5-------5-----------3-------|
A|-6---------------8---------------|-6-------------------5-------5---|
E|---------------------------------|-----------------6---------------|





G|---------------------------------|---------------------------------|
D|---------------------------------|-----------------8-\---------6---|
A|---------------------------------|---------------------------------|
E|-6-------------------------------|---------------------------------|





  CHORUS



G|---------------------------------|---------------------------------|
D|-6-----------6-------------------|-6-----------6-----------6---6---|
A|-----------------6-----------6---|-----------------6---------6---6-|
E|---------------------------------|---------------------------------|





G|---------------------------------|---------------------------------|
D|-5-----------5-------------------|-5-----------5-------5---5---5---|
A|-----------------5-----------5---|-----------------5---------5---5-|
E|---------------------------------|---------------------------------|





G|-----------------|---------------------------------|
D|-------------3---|-5-----------------------5-------|
A|-6---------------|-----------------6---------------|
E|-----------------|---------------------------------|





G|---------------------------------|---------------------------------|
D|---------------------------------|---------------------------------|
A|-6---------------5-----------3---|-1-------------------------------|
E|---------------------------------|---------------------------------|





G|---------------------------------|
D|---------------------------------|
A|---------------------------------|
E|---------------------------------|





  VERSE



G|---------------------------------|---------------------------------|
D|---------------------------------|---------------------------------|
A|---------------------------------|---------------------------------|
E|---------------------------------|---------------------------------|





G|---------------------------------|---------------------------------|
D|---------------------------------|-----------------5-------3-------|
A|---------------------------------|---------------------------------|
E|---------------------------------|---------------------------------|





G|-----------------------------2---|-3-------------------------------|
D|--------/3--/5---3------/5-------|--------/3-------5-------3-------|
A|-6-------------------------------|-------------5-------------------|
E|---------------------------------|---------------------------------|





G|---------------------------------|---------3-----------------------|
D|---------------------------------|-----5-------5-----------3-------|
A|-6---6---6---6---8---8---8---8---|-6-------------------5-----6-5-3-|
E|---------------------------------|-----------------6---------------|





G|---------------------------------|---------------------------------|
D|---------------------------------|---------------------------------|
A|---------------------------------|---------------------------------|
E|-6-------------------------------|---------------------------------|





  CHORUS



G|---------------------------------|---------------------------------|
D|-----------------3---------------|---------------------------------|
A|---------3-----------------------|---------------------------------|
E|-1---4-------4-------------------|-1---1---1---1---1---1---1---1---|





G|---------------------------------|---------------------------------|
D|---------------------------------|---------------------------------|
A|---------------------------------|---------------------------------|
E|-3---3---3---3---3---3---3---3---|-3---3---3---3---3---3---3---3---|





G|-----------------|---------4---7---7---------------|
D|-------------3---|-5-------------------------------|
A|-6---------------|---------------------------------|
E|-----------------|---------------------------------|





G|---------------------------------|---------------------------------|
D|---------------------------------|-----------------5---------------|
A|-6---------------6---------------|---------------------------------|
E|---------------------------------|-6-------------------------------|





G|---------------------------------|---------------------------------|
D|---------------------------------|-----------------8---5-----------|
A|-6---------------6---------------|---------------------------------|
E|---------------------------------|-6-------------------------------|





G|---------------------------------|---------------------------------|
D|---------------------------------|-------------------------8-5-----|
A|-6---------------8---------------|-6---------------------------6---|
E|---------------------------------|---------------------------------|





  OUTRO



G|---------------------------------|---------------------------------|
D|---------------------------------|---------------------------------|
A|---------------------------------|---------------------------------|
E|-6---6---6---6---6---6---6---6---|-6---6---6---6---6---6---6---6---|





G|---------------------------------|---------------------------------|
D|---------------------------------|---------------------------------|
A|---------------------------------|---------------------------------|
E|-6---6---6---6---6---6---6---6---|-6---6---6---6---6---6---6---6---|





G|---------------------------------|---------------------------------|
D|-------------------------8-5-----|---------------------------------|
A|-----------------------------6---|---------------------------------|
E|-6---6---6---6---6---6-----------|-6---6---6---6---6---6---6---6---|





G|---------------------------------|---------------------------------|
D|---------------------------------|---------------------------------|
A|---------------------------------|---------------------------------|
E|-6---6---6---6---6---6---6---6---|-6---6---6---6---6---6---6---6---| ....
Suggest correction
Give kudos to tab author, rate the tab!
1 2 3 4 5
comments
print report bad tab
guest
You may want to rate the tab now too:
select rating
Wanna post a correction for this tab? Suggest correction