Oops, an error
Loading. Please wait.

Surf Rider Tab

version 1
version 1

Whole song

Interactive

20,252 views 18 this week
no commentswrite comment
1 2 3 4 5
excellent!
x 9
add to favorites
launch autoscroll
font size
0
reset
how to read this tab
guitar tuner
Autoscroll
slow
fast
+/-
esc
set tempo
stop
Help us to improve Ultimate-Guitar.com Take our survey!
×
Author
jordan93 205
*Intro* -i didnt tab this-

----------------------------------------------------------------------------------|
----------------------------------------------------------------------------------|
----------------------------------------------------------------------------------|
-------7-------5---------7--------5------------5--------3--------5-------3--------|
----------5/7----------------5/7-------------------3/5--------------3/5-----------|
----5-----------------5--------------5------3------------------3------------3-----|


----------------------------------------------------------------------------------|
----------------------------------------------------------------------------------|
----------------------------------------------------------------------------------|
-----3--------1--------3--------1-------------------------------------------------|
---------1/3---------------1/3--------------------------------------5-5-4-4-2-2---|
--1-----------------1---------------1--1-------0---0-0-0---0----0-0---------------|


----------------------------------------------------------------------------------|
--------0--1---------0--1--0------------------0--1-------0--1--0----------------0-|
-----2------------2-----------2--0---------2-----------2----------2--0-------1----|
--2------------2------------------------3------------3--------------------2-------|
-----------------------------------------------------------------------2----------|
----------------------------------------------------------------------------------|


---/0--0--0---------------0----5--------------------------------------------------|
-3--5--5----3--1----------1----5----0----------0--1-------------------------------|
------------------2--0----2----5----7-------2-----------0--1--0-------------0--1--|
------------------------------------6----2------------2---------2--0------2-------|
------------------------------------7--------------2-------------------3----------|
----------------------------------------------------------------------------------|


-------------------------------------/0---0---0-------------------0--------5------|
------0--1--0-----------------0----3--5---5------3--1-------------1--------5------|
----2----------2--0--------1----------------------------2--0------2--------5------|
--3---------------------2---------------------------------------------------------|
---------------------2------------------------------------------------------------|
----------------------------------------------------------------------------------|

*Solo*

-5-----5-----5---------5------------10--------10-------10------10-----------------|
---8-----8-------8------8-------------13--------13-------13-----------------------|
-----6-----6-------6------6----11-------11--------11-------11---------------------|
----------------------------------------------------------------------------------|
----------------------------------------------------------------------------------|
----------------------------------------------------------------------------------|

--13--13--13-13---13-13-----------13--------13--------12--12----------------------|
--15--15--15-15---15-15-----13/15-----13/15----13-----15--15---15-12--------------|
-----------------------------------------------------------------------14-12------|
----------------------------------------------------------------------------------|
----------------------------------------------------------------------------------|
----------------------------------------------------------------------------------|

------------------------------------|
------------------------------0--1--|
-14--14--14--12------------2--------|
-----------------14----2------------|
------------------------------------|
------------------------------------|

-------------------------------------------------------------/0--0--0-------------|
------0-1-0--------------0--1--------0-1-0------------0-----3-5--5-----3--1-------|
----2--------2-0------2-----------2--------2-0------1------------------------2--0-|
--2----------------3-----------3------------------2-------------------------------|
------------------------------------------------2---------------------------------|
----------------------------------------------------------------------------------|

-0--5--5--------------------------------------------------------------------------|
-1--5--5--------------------------------------------------------------------------|
-2--5--5--------------------------------------------------------------------------|
----------------7--------5--------7--------5-------------5----------3-------------|
-------------------5/7---------------5/7----------------------3/5-----------------|
------------5-----------------5----------------5-----3----------------------------|

----------------------------------------------------------------------------------|
----------------------------------------------------------------------------------|
----------------------------------------------------------------------------------|
----5-------3------------3---------1------3-------1-------------------------------|
-------3/5-------------------1/3-------------1/3----------------------------------|
-3-------------3------1-----------------1-------------1--1---0-----0--0--0----0-0-|

----------------------------------------------------------------------------------|
----------------------------0--1------0--1--0-------------------------------------|
-------------------------2----------2----------2-0---------0--1-------0--1--0-----|
----------------------2-----------2--------------------2-----------2----------2-0-|
------5-5--4-4--2-2---------------------------------3------------3----------------|
-0-0------------------------------------------------------------------------------|

--------------/0--0--0--------------------0-----5----|
--------0----3-5--5-----3--1--------------1-----5----|
-----1-----------------------2--0---------2-----5----|
---2-------------------------------------------------|
-2---------------------------------------------------|
-----------------------------------------------------|

*Outro*

-0-----5------12----17----------|
-1-----5------13----17----------|
-2-----5------14----17----------|
--------------------------------|
--------------------------------|
--------------------------------|
Suggest correction
What's this?
You can suggest a correction to this tab. Community and Mods will review your correction and vote to approve or reject it.
comments
print report bad tab
guest
You may want to rate the tab now too:
select rating
Please do not post tabs as comments. Select "correction" instead!