Oops, an error
Loading. Please wait.

Telstar Bass Tab

5,197 views 1 this week
no commentswrite comment
1 2 3 4 5
2 more votes to show rating
add to favorites
launch autoscroll
font size
0
reset
guitar tuner
Autoscroll
slow
fast
+/-
esc
set tempo
stop
Help us to improve Ultimate-Guitar.com Take our survey!
×
Author
TELSTAR

The Ventures

INTRO

G|---------------------------------|---------------------------------|
D|-4---4---4---4---4---4---4---4---|-4---4---4---4---4---4---4---4---|
A|---------------------------------|---------------------------------|
E|---------------------------------|---------------------------------|

G|---------------------------------|---------------------------------|
D|-4---4---4---4---4---4---4---4---|-5---5---5---5---5---5---5---5---|
A|---------------------------------|---------------------------------|
E|---------------------------------|---------------------------------|

G|---------------------------------|---------------------------------|
D|-6---6---6---6---6---6---6---6---|-7---7---7---7---7---7---7---7---|
A|---------------------------------|---------------------------------|
E|---------------------------------|---------------------------------|

VERSE

G|-2---------------2---------------|---------------------------------|
D|---------2---------------2-------|-4---------------4---------------|
A|---------------------------------|---------4---------------4-------|
E|---------------------------------|---------------------------------|

G|-4---------------4---------------|---------------------------------|
D|---------4---------------4-------|-2---------------2---------------|
A|---------------------------------|---------2---------------2-------|
E|---------------------------------|---------------------------------|

G|-2---------------2---------------|---------------------------------|
D|---------2---------------2-------|-4---------------4---------------|
A|---------------------------------|---------4---------------4-------|
E|---------------------------------|---------------------------------|

G|-4---------------4---------------|---------------------------------|
D|---------4---------------4-------|-2---------------2---------------|
A|---------------------------------|---------2---------------2-------|
E|---------------------------------|---------------------------------|

G|---------------------------------|---------------------------------|
D|---------------------------------|---------------------------------|
A|-4---------------4---------------|-4---------------4---------------|
E|---------4---------------4-------|---------4---------------4-------|

G|---------------------------------|---------------------------------|
D|-4---------------4---------------|-0---------------2---------------|
A|---------4---------------4-------|---------0---------------2-------|
E|---------------------------------|---------------------------------|

G|-2---------------2---------------|---------------------------------|
D|---------2---------------2-------|-4---------------4---------------|
A|---------------------------------|---------4---------------4-------|
E|---------------------------------|---------------------------------|

G|---------------------------------|---------------------------------|
D|-0---------------0---------------|-2---------------2---------------|
A|---------0---------------0-------|---------2---------------2-------|
E|---------------------------------|---------------------------------|

BRIDGE

G|-2---------------2---------------|---------------------------------|
D|---------2---------------2-------|-4---------------4---------------|
A|---------------------------------|---------4---------------4-------|
E|---------------------------------|---------------------------------|

G|---------------------------------|---------------------------------|
D|-0---------------2---------------|-2---------------2---------------|
A|---------0---------------2-------|---------2---------------2-------|
E|---------------------------------|---------------------------------|

G|-2---------------2---------------|---------------------------------|
D|---------2---------------2-------|-4---------------4---------------|
A|---------------------------------|---------4---------------4-------|
E|---------------------------------|---------------------------------|

G|---------------------------------|---------------------------------|
D|-2---------------2---------------|-2---------------2---------------|
A|---------2---------------2-------|---------2---------------2-------|
E|---------------------------------|---------------------------------|

G|-2---------------2---------------|---------------------------------|
D|---------2---------------2-------|-4---------------4---------------|
A|---------------------------------|---------4---------------4-------|
E|---------------------------------|---------------------------------|

G|---------------------------------|---------------------------------|
D|-0---------------2---------------|-2---------------2---------------|
A|---------0---------------2-------|---------2---------------2-------|
E|---------------------------------|---------------------------------|

G|-2---------------2---------------|---------------------------------|
D|---------2---------------2-------|-4---------------4---------------|
A|---------------------------------|---------4---------------4-------|
E|---------------------------------|---------------------------------|

G|---------------------------------|---------------------------------|
D|-2---------------2---------------|-2---------------2---------------|
A|---------2---------------2-------|---------2---------------2-------|
E|---------------------------------|---------------------------------|

VERSE

G|-2---------------2---------------|---------------------------------|
D|---------2---------------2-------|-4---------------4---------------|
A|---------------------------------|---------4---------------4-------|
E|---------------------------------|---------------------------------|

G|-----------------4---------------|---------------------------------|
D|-0-----------------------4-------|-2---------------2---------------|
A|---------0-----------------------|---------2---------------2-------|
E|---------------------------------|---------------------------------|

G|-2---------------2---------------|---------------------------------|
D|---------2---------------2-------|-4---------------4---------------|
A|---------------------------------|---------4---------------4-------|
E|---------------------------------|---------------------------------|

G|-4---------------4---------------|---------------------------------|
D|---------4---------------4-------|-2---------------2---------------|
A|---------------------------------|---------2---------------2-------|
E|---------------------------------|---------------------------------|

G|---------------------------------|---------------------------------|
D|-4---------------4---------------|-2---------------0---------------|
A|---------4---------------4-------|---------2---------------2-------|
E|---------------------------------|---------------------------------|

G|-2---------------2---------------|---------------------------------|
D|---------2---------------2-------|-4---------------0---------------|
A|---------------------------------|---------4---------------2-------|
E|---------------------------------|---------------------------------|

G|-2---------------2---------------|---------------------------------|
D|---------2---------------2-------|-4---------------4---------------|
A|---------------------------------|---------4---------------4-------|
E|---------------------------------|---------------------------------|

G|-4---------------4---------------|---------------------------------|
D|---------4---------------4-------|-2---------------2---------------|
A|---------------------------------|---------2---------------2-------|
E|---------------------------------|---------------------------------|

BRIDGE

G|-2---------------2---------------|---------------------------------|
D|---------2---------------2-------|-4---------------4---------------|
A|---------------------------------|---------4---------------4-------|
E|---------------------------------|---------------------------------|

G|---------------------------------|---------------------------------|
D|-0---------------2---------------|-2---------------2---------------|
A|---------0---------------2-------|---------2---------------2-------|
E|---------------------------------|---------------------------------|

G|-2---------------2---------------|---------------------------------|
D|---------2---------------2-------|-4---------------4---------------|
A|---------------------------------|---------4---------------4-------|
E|---------------------------------|---------------------------------|

G|---------------------------------|---------------------------------|
D|-2---------------2---------------|-2---------------2---------------|
A|---------2---------------2-------|---------2---------------2-------|
E|---------------------------------|---------------------------------|

INTERLUDE

G|-2---------------2---------------|-2-------------------------------|
D|---------2---------------2-------|---------------------------------|
A|---------------------------------|------0----1-----2----3----4-----|
E|---------------------------------|---------------------------------|

VERSE

G|---------------------------------|---------------------------------|
D|---------------------------------|-9---------------9---------------|
A|-5---------------5---------------|---------9---------------9-------|
E|---------5---------------5-------|---------------------------------|

G|-9---------------9---------------|---------------------------------|
D|---------9---------------9-------|-7---------------7---------------|
A|---------------------------------|---------7---------------7-------|
E|---------------------------------|---------------------------------|

G|-7---------------7---------------|---------------------------------|
D|---------7---------------7-------|-9---------------9---------------|
A|---------------------------------|---------9---------------9-------|
E|---------------------------------|---------------------------------|

G|-9---------------9---------------|---------------------------------|
D|---------9---------------9-------|-7---------------7---------------|
A|---------------------------------|---------7---------------7-------|
E|---------------------------------|---------------------------------|

G|---------------------------------|---------------------------------|
D|-4---------------4---------------|-4---------------4---------------|
A|---------4---------------4-------|---------4---------------4-------|
E|---------------------------------|---------------------------------|

G|-4---------------4---------------|---------------------------------|
D|---------4---------------4-------|-5---------------7---------------|
A|---------------------------------|---------5---------------7-------|
E|---------------------------------|---------------------------------|

G|-7---------------7---------------|---------------------------------|
D|---------7---------------7-------|-9---------------9---------------|
A|---------------------------------|---------9---------------9-------|
E|---------------------------------|---------------------------------|

G|-9---------------9---------------|---------------------------------|
D|---------9---------------9-------|-7---------------7---------------|
A|---------------------------------|---------7---------------7-------|
E|---------------------------------|---------------------------------|

G|---------------------------------|---------------------------------|
D|---------------------------------|---------------------------------|
A|-5---5---5---5---5---5---5---5---|-5---5---5---5---5---5---5---5---|
E|---------------------------------|---------------------------------|

OUTRO

G|---------------------------------|---------------------------------|
D|---------------------------------|---------------------------------|
A|-5---5---5---5---5---5---5---5---|-5---5---5---5---5---5---5---5---|
E|---------------------------------|---------------------------------|

G|---------------------------------|---------------------------------|
D|---------------------------------|---------------------------------|
A|-5---5---5---5---5---5---5---5---|-5---5---5---5---5---5---5---5---|
E|---------------------------------|---------------------------------|

G|---------------------------------|---------------------------------|
D|---------------------------------|---------------------------------|
A|-5---5---5---5---5---5---5---5---|-5---5---5---5---5---5---5---5---|
E|---------------------------------|---------------------------------|

G|---------------------------------|---------------------------------|
D|---------------------------------|---------------------------------|
A|-5---5---5---5---5---5---5---5---|-5---5---5---5---5---5---5---5---|
E|---------------------------------|---------------------------------|

G|---------------------------------|---------------------------------|
D|---------------------------------|---------------------------------|
A|-5---5---5---5---5---5---5---5---|-5---5---5---5---5---5---5---5---|
E|---------------------------------|---------------------------------|

G|---------------------------------|---------------------------------|
D|---------------------------------|---------------------------------|
A|-5---5---5---5---5---5---5---5---|-5---5---5---5---5---5---5---5---|
E|---------------------------------|---------------------------------|
                                                             FADE OUT
Suggest correction
Give kudos to tab author, rate the tab!
1 2 3 4 5
comments
print report bad tab
guest
You may want to rate the tab now too:
select rating
Wanna post a correction for this tab? Suggest correction