Oops, an error
Loading. Please wait.

Telstar Tab

14,706 views 57 this week
no commentswrite comment
1 2 3 4 5
please rate
add to favorites
launch autoscroll
font size
0
reset
how to read this tab
guitar tuner
Autoscroll
slow
fast
+/-
esc
set tempo
stop
Help us to improve Ultimate-Guitar.com Take our survey!
×
Author
Difficulty
novice
-------------------------------------------------------------------------------
                             TELSTAR - VENTURES
-------------------------------------------------------------------------------


Tabbed by: fishyfish235
Email: vince32@live.com

Tuning: Standard

Tab is based on the Live in Japan '65 Version of the Song

The Original version of the song had the verse played by the organ.  If you
want to play the original version of the song, completely disregard the 
verses.  Only play the Choruses, the intro, and the ending.

INTRO:

e|---2----2----2----3----4----5----|
B|---2----2----2----3----4----5----|
G|---3~---3~---3~---4~---5~---6~---|            Vibrate the entire
D|---4~---4~---4~---5~---6~---7~---|                    Chord
A|---4----4----4----5----6----7----|
E|---2----2----2----3----4----5----|

VERSE:

e|------------------------------------------------0~--0-0-0-0H2--0--|
B|-----------------3--2-0---0~-----3--2-0---0-----------------------|
G|----2~------------------2---------------2------------------------2|
D|2-2-----2-4~--2----------------2--------------2-------------------|
A|------------------------------------------------------------------|
E|------------------------------------------------------------------|

e|-0--------------------------------------------|
B|---3-2~----2-0-2~-2-2H3-2-0---0~-0-0H2-0------|
G|----------------------------2------------2-1--|
D|-------3-4------------------------------------|
A|----------------------------------------------|
E|----------------------------------------------|

CHORUS:

e|-12-12-12-12-14-12-----------------0-------------------------------|
B|--------------------10-12-14-12-14-----10-12-14-14-12-14-15-14--14-|
G|-------------------------------------------------------------------|
D|-------------------------------------------------------------------|
A|-------------------------------------------------------------------|
E|-------------------------------------------------------------------|

e|----------------------12-12-12-12-14-12------------------0---------|
B|12-10-12-14-12--14-15---------------------10-12-14-12-14-----10-12-|
G|-------------------------------------------------------------------|
D|-------------------------------------------------------------------|
A|-------------------------------------------------------------------|
E|-------------------------------------------------------------------|

e|------------------0-4-0-10-|
B|14-14-12-14-15-14----------|
G|---------------------------|
D|---------------------------|
A|---------------------------|
E|---------------------------|

VERSE:

e|------------------------------------------------0~--0-0-0-0H2--0--|
B|-----------------3--2-0---0~-----3--2-0---0-----------------------|
G|----2~------------------2---------------2------------------------2|
D|2-2-----2-4~--2----------------2--------------2-------------------|
A|------------------------------------------------------------------|
E|------------------------------------------------------------------|

e|-0--------------------------------------------|
B|---3-2~----2-0-2~-2-2H3-2-0---0~-0-0H2-0------|
G|----------------------------2------------2-1--|
D|-------3-4------------------------------------|
A|----------------------------------------------|
E|----------------------------------------------|

CHORUS:

e|-12-12-12-12-14-12-----------------0-------------------------------|
B|--------------------10-12-14-12-14-----10-12-14-14-12-14-15-14--14-|
G|-------------------------------------------------------------------|
D|-------------------------------------------------------------------|
A|-------------------------------------------------------------------|
E|-------------------------------------------------------------------|

e|---------------0-4-0-10--|
B|12-10-12-14-12-----------|
G|-------------------------|
D|-------------------------|
A|-------------------------|
E|-------------------------|

INTERLUDE:

e|------0--1--2--3--4----|
B|------2--3--4--5--6----|
G|-2----2--3--4--5--6----|
D|------2--3--4--5--6----|
A|------0--1--2--3--4----|
E|------0--1--2--3--4----|

VERSE:

e|-----------------3--2-0---0~-----3--2-0---0-----5~--5-5-5-5H7--5--|
B|----3~------------------3---------------3------------------------3|
G|--------2-4---2~---------------2--------------2-------------------|
D|------------------------------------------------------------------|
A|------------------------------------------------------------------|
E|------------------------------------------------------------------|

e|-5-3-2~----2-0-2~-2-2H3-2-0---0~-0-0H2-0-------|
B|----------------------------3------------3-2-3-|
G|-------3-4-------------------------------------|
D|-----------------------------------------------|
A|-----------------------------------------------|
E|-----------------------------------------------|

ENDING:

e|---10-10-10-10-10-10-10-10-10-10---2---5---10-----10-------------|
B|---12-12-12-12-12-12-12-12-12-12---3---7---12-----12---12--------|
G|---12-12-12-12-12-12-12-12-12-12---2---7---12-----12---12---12---|
D|---11-11-11-11-11-11-11-11-11-11---0---7---11-----11---11---11---|
A|-------------------------------------------------------10---10---|
E|------------------------------------------------------------10---|


************************************

| /   slide up
| \   slide down
| h   hammer-on
| p   pull-off
| ~   vibrato
| +   harmonic
| x   Mute note
| b   Bend
| pb  Pre-bend
| br  Bend release
| pbr Pre-bend release
| brb Bend release bend

************************************
Suggest correction
Give kudos to tab author, rate the tab!
1 2 3 4 5
comments
print report bad tab
guest
You may want to rate the tab now too:
select rating
Please do not post tabs as comments. Select "correction" instead!