Oops, an error
Loading. Please wait.

The Good The Bad And The Ugly Bass Tab

version 1
version 1

Whole song

Interactive

5,458 views 6 this week
1 commentread comment
1 2 3 4 5
please rate
add to favorites
launch autoscroll
font size
0
reset
guitar tuner
Tab Pro tools
  • play this tab
  • loop segment
  • change instrument
  • show fretboard
  • metronome
×
Best way to learn
"The Good The Bad And The Ugly"
Autoscroll
slow
fast
+/-
esc
set tempo
stop
Contributor
       ------------------------------------------------------------

              THE VENTURES - THE GOOD, THE BAD, AND THE UGLY
                             Ennio Morricone
          From MORE GOLDEN GREATS album. Released on March 1970.

       ------------------------------------------------------------






     INTRO


  G|---------------------------------|---------------------------------|
  D|---------------------------------|---------------------------------|
  A|-7-----------7---7---7-----------|-7---7-------7---7---7-----------|
  E|-----------------------------7---|-----------------------------7---|





  G|---------------------------------|---------------------------------|
  D|---------------------------------|---------------------------------|
  A|-7-----------7---7---7-----------|-7-----------7---7---7-----------|
  E|-----------------------------7---|-----------------------------7---|





     VERSE
     00:08

  G|---------------------------------|---------------------------------|
  D|---------------------------------|-7-----------7---7---7-----------|
  A|-7-----------7---7---7-----------|---------------------------------|
  E|---------------------------------|-----------------------------7---|





  G|---------------------------------|---------------------------------|
  D|---------------------------------|---------------------------------|
  A|-7-----------7---7---7-----------|-5-----------5---5---5-------0---|
  E|-----------------------------7---|---------------------------------|





  G|---------------------------------|---------------------------------|
  D|---------------------------------|---------------------------------|
  A|-3-----------3---3---3-----------|-2-----------2---2---2-------2---|
  E|-----------------------------3---|---------------------------------|





  G|---------------------------------|---------------------------------|
  D|---------------------------------|---------------------------------|
  A|-3---3---3---3---3---------------|-7-----------7---7---7-----------|
  E|---------------------------------|-----------------------------7---|





  G|---------------------------------|
  D|---------------------------------|
  A|-7---7-------7---7---7-----------|
  E|---------------------------------|





     VERSE
     00:26 .....



     BRIDGE
     00:44

  G|---------------------------------|---------------------------------|
  D|-5-----------5-------------------|---------------------------------|
  A|---------------------------------|---------------------------------|
  E|-----------------7-----------x---|-7---------------7---7-----------|





  G|---------------------------------|---------------------------------|
  D|-----------------5-----------5---|-5-----------5---5---5-----------|
  A|-7-----------7-------------------|---------------------------------|
  E|---------------------------------|-----------------------------7---|





  G|---------------------------------|---------------------------------|
  D|-----------------5-----------5---|---------------------------------|
  A|-7-----------7-------------------|-5-------5-------5---5---4---3---|
  E|---------------------------------|---------------------------------|





  G|---------------------------------|---------------------------------|
  D|---------------------------------|-----------------7---7---7-------|
  A|-2-------2-----x-2---x---2-----/-|-7-------7-----x-----------------|
  E|---------------------------------|---------------------------------|





  G|---------------------------------|---------------------------------|
  D|-----------------7---7-----------|---------7---------------7-------|
  A|-7-------7-----x-----------------|-7---------------7---------------|
  E|---------------------------------|---------------------------------|





  G|-5-------4-------2---------------|---------------------------------|
  D|-------------------------5-------|-4-------2-----------------------|
  A|---------------------------------|-----------------5-------4-------|
  E|---------------------------------|---------------------------------|





  G|---------------------------------|---------------------------------|
  D|---------------------------------|---------------------------------|
  A|-1-------------------------------|-2-------------------------------|
  E|---------------------------------|---------------------------------|





     INTERLUDE
     01:16

  G|---------------------------------|---------------------------------|
  D|---------------------------------|---------------------------------|
  A|-7-----------7---7-----------7---|-7-----------7---7---7-----------|
  E|---------------------------------|---------------------------------|





  G|---------------------------------|---------------------------------|
  D|---------------------------------|---------------------------------|
  A|-8-----------8---8-----------8---|-8-----------8---8---8---8-------|
  E|---------------------------------|-----------------------------8---|





     VERSE
     01:24

  G|---------------------------------|---------------------------------|
  D|---------------------------------|-8-----------8---8---8-----------|
  A|-8-----------8---8---------------|---------------------------------|
  E|---------------------------------|-----------------------------8---|





  G|---------------------------------|---------------------------------|
  D|---------------------------------|---------------------------------|
  A|-8-----------8---8---------------|-6-----------6---6---6-----------|
  E|-----------------------------8---|-----------------------------6---|





  G|---------------------------------|---------------------------------|
  D|---------------------------------|---------------------------------|
  A|-4-----------4---4---------------|-3-----------3---3---3-----------|
  E|-----------------------------4---|-----------------------------3---|





  G|---------------------------------|---------------------------------|
  D|---------------------------------|-------------------------4---5---|
  A|-4---4---4---4---4---------------|-8-----------8---8---8-----------|
  E|---------------------------------|---------------------------------|





     BRIDGE
     01:41

  G|---------------------------------|---------------------------------|
  D|-6-------6-----------------------|---------------------------------|
  A|---------------------------------|---------------------------------|
  E|-----------------8-----------8---|-8-----------x---8---8-------8---|





  G|---------------------------------|---------------------------------|
  D|-----------------6-----------6---|-6-----------6---6---6-----------|
  A|-8-----------8-------------------|---------------------------------|
  E|---------------------------------|-----------------------------8---|





  G|---------------------------------|---------------------------------|
  D|-----------------6-----------6---|---------------------------------|
  A|-8-----------8-------------------|-6-------6-------6---6---5---4---|
  E|---------------------------------|---------------------------------|





  G|---------------------------------|---------------------------------|
  D|---------------------------------|-----------------8---8-----------|
  A|-3-------3-------3---3---3-----/-|-8-------8-----------------------|
  E|---------------------------------|---------------------------------|





  G|---------------------------------|---------------------------------|
  D|-----------------8---8-----------|---------8---------------8-------|
  A|-8-------8-----x-----------------|-8---------------8---------------|
  E|---------------------------------|---------------------------------|





  G|-6-------5-------3---------------|---------------------------------|
  D|-------------------------6-------|-5-------3-----------------------|
  A|---------------------------------|-----------------6-------5-------|
  E|---------------------------------|---------------------------------|





  G|---------------------------------|---------------------------------|
  D|---------------------------------|---------------------------------|
  A|-2-------------------------------|-3-------------------------------|
  E|---------------------------------|---------------------------------|





     INTERLUDE
     02:10

  G|---------------------------------|---------------------------------|
  D|---------------------------------|---------------------------------|
  A|-8-----------8---8---------------|-8-----------8---8---8---8-------|
  E|-----------------------------8---|-----------------------------8---|





     VERSE
     02:14

  G|---------------------------------|---------------------------------|
  D|---------------------------------|-8-----------8---8---8-----------|
  A|-8-----------8---8---8-------8---|---------------------------------|
  E|---------------------------------|-----------------------------8---|





  G|---------------------------------|---------------------------------|
  D|---------------------------------|---------------------------------|
  A|-8----------/8---8---8-----------|-6-----------6---6---6-----------|
  E|-----------------------------8---|-----------------------------6---|





  G|---------------------------------|---------------------------------|
  D|---------------------------------|---------------------------------|
  A|-4-----------4---4---4-----------|-3-----------3-x-3---3-------3---|
  E|-----------------------------4---|---------------------------------|





  G|---------------------------------|---------------------------------|
  D|---------------------------------|---------------------------------|
  A|-4---4---4---4---4---------------|-8-------8-------8-------8-------|
  E|---------------------------------|---------------------------------|





     OUTRO
     02:31

  G|---------------------------------|---------------------------------|
  D|---------------------------------|---------------------------------|
  A|-4-----------4-------------------|-8-----------8---8---8---6---5---|
  E|-----------------6-----------6---|---------------------------------|





  G|---------------------------------|---------------------------------|
  D|---------------------------------|---------------------------------|
  A|-4-----------4-------------------|-8-----------8---8---8---8---8---|
  E|-----------------6-----------6---|---------------------------------|





  G|---------------------------------|---------------------------------|
  D|---------------------------------|---------------------------------|
  A|-4-----------4-------------------|-8-------8-------8---8---8---8---|
  E|-----------------6-----------6---|---------------------------------|





  G|---------------------------------|---------------------------------|
  D|---------------------------------|---------------------------------|
  A|-4-------4-----4-----------------|-8-------------------------------|
  E|-----------------6---6-------6---|---------------------------------| ....
comments
We did not receive enough feedback on this tab! Please rate:
print report bad tab
1 2 3 4 5
1 comment total.
0 reply
delusillet wrote on June 12 2015, 09:17 pm

didn't like this contribution

I want to post or [tab]
guest
You may want to rate the tab now too:
select rating
Please do not post tabs as comments. Select "correction" instead!