Oops, an error
Loading. Please wait.

The Loco-Motion Bass Tab

version 1
version 1

Whole song

Interactive

2,383 views 1 this week
no commentswrite comment
1 2 3 4 5
please rate
add to favorites
launch autoscroll
font size
0
reset
guitar tuner
Autoscroll
slow
fast
+/-
esc
set tempo
stop
Help us to improve Ultimate-Guitar.com Take our survey!
×
Author
THE LOCO-MOTION

The Ventures

INTRO

G|---------------------------------|---------------------------------|
D|---------------------------------|---------------------------------|
A|---------------------------------|---------------------------------|
E|---------------------------------|---------------------------------|

G|---------------------------------|---------------------------------|
D|---------------------------------|-------------------------0---2---|
A|---------------------------------|---------------------3-----------|
E|---------------------------------|---------------------------------|

VERSE

G|---------------------------------|---------------------------------|
D|-3-----------3-----------3-------|-0-----------0---------------0---|
A|-----------------3-----------3---|-----------------0---0---3-------|
E|---------------------------------|---------------------------------|

G|---------------------------------|---------------------------------|
D|-3-----------3-----------3-------|-0-----------0---------------0---|
A|-----------------3-----------3---|-----------------0---0---3-------|
E|---------------------------------|---------------------------------|

G|---------------------------------|---------------------------------|
D|-3-----------3-----------3-------|-0-----------0---------------0---|
A|-----------------3-----------3---|-----------------0---0---3-------|
E|---------------------------------|---------------------------------|

G|---------------------------------|---------------------------------|
D|-3-----------3-----------3-------|-0-----------0---------------0---|
A|-----------------3-----------3---|-----------------0---0---3-------|
E|---------------------------------|---------------------------------|

G|-3---3-------3-----------3---2---|-0-----------0---------------0---|
D|-----------------3---3-----------|-----------------0---0---3-------|
A|---------------------------------|---------------------------------|
E|---------------------------------|---------------------------------|

G|-3---3-------3-----------3---2---|-0-----------0-----------2---0---|
D|-----------------3---3-----------|-----------------3---3-----------|
A|---------------------------------|---------------------------------|
E|---------------------------------|---------------------------------|

G|---------------------------------|-5---5-------5---0---0---5-------|
D|-3---3-------3-----------3-------|---------------------------------|
A|-----------------3---3-----------|---------------------------------|
E|---------------------------------|---------------------------------|

G|---------------------------------|---------------------------------|
D|-3---3-------3-----------0---2---|-3---3---1---1---0---0-----------|
A|-----------------3---3-----------|-------------------------3---3---|
E|---------------------------------|---------------------------------|

BRIDGE

G|---------------------------------|---------------------------------|
D|---------0---0---3---3---5---3---|---------0---0---3---3---5---3---|
A|-1---1---------------------------|-1---1---------------------------|
E|---------------------------------|---------------------------------|

G|---------------------------------|---------------------------------|
D|---------------------------------|---------------------------------|
A|---------0---0---3---3---5---3---|---------0---0---3---3---5---3---|
E|-1---1---------------------------|-1---1---------------------------|

G|-----------------0---0---2---2---|-5-----------5---5---3---2---0---|
D|---------2---2-------------------|---------------------------------|
A|-3---3---------------------------|---------------------------------|
E|---------------------------------|---------------------------------|

VERSE

G|---------------------------------|---------------------------------|
D|-3-----------3-----------3-------|-0-----------0---------------0---|
A|-----------------3-----------3---|-----------------0---0---3-------|
E|---------------------------------|---------------------------------|

G|---------------------------------|---------------------------------|
D|-3-----------3-----------3-------|-0-----------0---------------0---|
A|-----------------3-----------3---|-----------------0---0---3-------|
E|---------------------------------|---------------------------------|

G|---------------------------------|---------------------------------|
D|-3-----------3-----------3-------|-0-----------0---------------0---|
A|-----------------3-----------3---|-----------------0---0---3-------|
E|---------------------------------|---------------------------------|

G|---------------------------------|---------------------------------|
D|-3-----------3-----------3-------|-0-----------0---------------0---|
A|-----------------3-----------3---|-----------------0---0---3-------|
E|---------------------------------|---------------------------------|

G|-3---3-------3-----------3---2---|-0-----------0---------------0---|
D|-----------------3---3-----------|-----------------0---0---3-------|
A|---------------------------------|---------------------------------|
E|---------------------------------|---------------------------------|

G|-3---3-------3-----------3---2---|-0-----------0-----------2---0---|
D|-----------------3---3-----------|-----------------3---3-----------|
A|---------------------------------|---------------------------------|
E|---------------------------------|---------------------------------|

G|---------------------------------|-5---5-------5---0---0---5-------|
D|-3---3-------3-----------3-------|---------------------------------|
A|-----------------3---3-----------|---------------------------------|
E|---------------------------------|---------------------------------|

G|---------------------------------|---------------------------------|
D|-3---3-------3-----------0---2---|-3---3---1---1---0---0-----------|
A|-----------------3---3-----------|-------------------------3---3---|
E|---------------------------------|---------------------------------|

BRIDGE

G|---------------------------------|---------------------------------|
D|---------0---0---3---3---5---3---|---------0---0---3---3---5---3---|
A|-1---1---------------------------|-1---1---------------------------|
E|---------------------------------|---------------------------------|

G|---------------------------------|---------------------------------|
D|---------------------------------|---------------------------------|
A|---------0---0---3---3---5---3---|---------0---0---3---3---5---3---|
E|-1---1---------------------------|-1---1---------------------------|

G|-----------------0---0---2---2---|-5-----------5---5---3---2---0---|
D|---------2---2-------------------|---------------------------------|
A|-3---3---------------------------|---------------------------------|
E|---------------------------------|---------------------------------|

VERSE

G|---------------------------------|---------------------------------|
D|-3-----------3-----------3-------|-0-----------0---------------0---|
A|-----------------3-----------3---|-----------------0---0---3-------|
E|---------------------------------|---------------------------------|

G|---------------------------------|---------------------------------|
D|-3-----------3-----------3-------|-0-----------0---------------0---|
A|-----------------3-----------3---|-----------------0---0---3-------|
E|---------------------------------|---------------------------------|

G|---------------------------------|---------------------------------|
D|-3-----------3-----------3-------|-0-----------0---------------0---|
A|-----------------3-----------3---|-----------------0---0---3-------|
E|---------------------------------|---------------------------------|

G|---------------------------------|---------------------------------|
D|-3-----------3-----------3-------|-0-----------0---------------0---|
A|-----------------3-----------3---|-----------------0---0---3-------|
E|---------------------------------|---------------------------------|

G|-3---3-------3-----------3---2---|-0-----------0---------------0---|
D|-----------------3---3-----------|-----------------0---0---3-------|
A|---------------------------------|---------------------------------|
E|---------------------------------|---------------------------------|

G|-3---3-------3-----------3---2---|-0-----------0-----------2---0---|
D|-----------------3---3-----------|-----------------3---3-----------|
A|---------------------------------|---------------------------------|
E|---------------------------------|---------------------------------|

G|---------------------------------|-5---5-------5-----------5-------|
D|-3---3-------3-----------3-------|-----------------5---5-----------|
A|-----------------3---3-----------|---------------------------------|
E|---------------------------------|---------------------------------|

G|---------------------------------|
D|-3---3-------3-----------0---2---|
A|-----------------3---3-----------|
E|---------------------------------|

OUTRO

G|---------------------------------|---------------------------------|
D|-3-----------3-----------3-------|-0-----------0---------------0---|
A|-----------------3-----------3---|-----------------0---0---3-------|
E|---------------------------------|---------------------------------|

G|---------------------------------|---------------------------------|
D|-3-----------3-----------3-------|-0-----------0---------------0---|
A|-----------------3-----------3---|-----------------0---0---3-------|
E|---------------------------------|---------------------------------|

G|---------------------------------|---------------------------------|
D|-3-----------3-----------3-------|-0-----------0---------------0---|
A|-----------------3-----------3---|-----------------0---0---3-------|
E|---------------------------------|---------------------------------|
Suggest correction
Give kudos to tab author, rate the tab!
1 2 3 4 5
comments
print report bad tab
guest
You may want to rate the tab now too:
select rating
Wanna post a correction for this tab? Suggest correction