Oops, an error
Loading. Please wait.

Walk Dont Run Bass Tab

version 1
version 1

Whole song

Interactive

17,884 views 15 this week
no commentswrite comment
1 2 3 4 5
x 3
add to favorites
launch autoscroll
font size
0
reset
guitar tuner
Autoscroll
slow
fast
+/-
esc
set tempo
stop
Help us to improve Ultimate-Guitar.com Take our survey!
×
Difficulty
intermediate
G|----------------|----------------|----------------|----------------|
D|----------------|----------------|----------------|777-555-333-2-22|
A|----------------|----------------|----------------|----------------|
E|----------------|----------------|----------------|----------------|

G|----------------|----------------|--------0-------|----0-2---------|
D|777-555-333-2-22|777-555-3-3-2-0-|--0-2-3---3-2-0-|--2------2222222|
A|----------------|----------------|3---------------|3---------------|
E|----------------|----------------|----------------|----------------|

G|----------------|----------------|--------0-------|----0-2-5-2-0---|
D|777-555-333-2-22|777-555-3-3-2-0-|--0-2-3---3-2-0-|--2-----------2-|
A|----------------|----------------|3---------------|3---------------|
E|----------------|----------------|----------------|----------------|

G|----0-2-5-2-0---|2-2-------------|------------4-4-|2-2-------------|
D|--2-----------2-|----2-2-----2-2-|3-3-----2-2-----|----2-2—-20-----|
A|3---------------|--------0-0-----|----3-3---------|------------3-2-|
E|----------------|----------------|----------------|----------------|

G|----------------|----------------|--------0-------|----0-2-5-2-0---|
D|7-7-555-333-2-22|777-555-3-3-2-0-|--0-2-3---3-2-0-|--2-----------2-|
A|----------------|----------------|3---------------|3---------------|
E|----------------|----------------|----------------|----------------|

G|----------------|----------------|----------------|777-555-333-2-22|
D|----------------|----------------|----------------|----------------|
A|3---------------|----------------|----------------|----------------|
E|----------------|----------------|----------------|----------------|

G|----------------|----------------|--------0-------|----0-2---------|
D|777-555-333-2-22|777-555-3-3-2-0-|--0-2-3---3-2-0-|--2------2222222|
A|----------------|----------------|3---------------|3---------------|
E|----------------|----------------|----------------|----------------|

G|----------------|----------------|--------0-------|----0-2-5-2-0---|
D|777-555-333-2-22|777-555-3-3-2-0-|--0-2-3---3-2-0-|--2-----------2-|
A|----------------|----------------|3---------------|3---------------|
E|----------------|----------------|----------------|----------------|

G|----0-2-5-2-0---|2-2-------------|----5-5---------|----------------|
D|--2-----------2-|----2-2-----2-2-|3-3-----2-2-----|----2-2—-20-----|
A|3---------------|--------0-0-----|------------2-2-|0-0---------3-2-|
E|----------------|----------------|----------------|----------------|

G|----------------|----------------|----0-2-0-------|----------------|
D|7-7-555-333-2-22|777-555-3-3-2-0-|--2-------3-2-0-|----3-3---205---|
A|----------------|----------------|3---------------|3-3------3------|
E|----------------|----------------|----------------|----------------|

Suggest correction
Give kudos to tab author, rate the tab!
1 2 3 4 5
comments
print report bad tab
guest
You may want to rate the tab now too:
select rating
Wanna post a correction for this tab? Suggest correction