Oops, an error
Loading. Please wait.

Walk Dont Run Tab

version 4
version 4
115,435 views 378 this week
4 commentsread comments
1 2 3 4 5
excellent!
x 36
add to favorites
launch autoscroll
font size
0
reset
how to read this tab
guitar tuner
Tab Pro tools
  • play this tab
  • loop segment
  • change instrument
  • show fretboard
  • metronome
×
Best way to learn
"Walk Dont Run"
Autoscroll
slow
fast
+/-
esc
set tempo
stop
Contributor
Walk Don\'t Run
The Ventures
Tabbed by thelordofguitar
h=hammer
~=Bend

intro:
E  :--5-----3-----1-----0----|
B  :--5-----3-----1-----0----|
G  :--6-x3--4-x3--2-x3--1-x3-|  for the intro the strumming pattern is down 
D  :--7-----5-----3-----2----|  up down
A  :--7-----5-----3-----2----|
E  :--5-----3-----1-----0----|

then play this: clean sound

E  :----------------|----------------|----------------|----------------|
B  :----------------|------1--0------|--------------0-|1---0-----------|
G  :-2--------------|-0-2--------2---|----------2---0-|2---0---2-------|
D  :----------0-2-3-|----------------|------0-2-3-----|--------3----2-1|
A  :---0-2-3--------|---------------0|-2-3------------|----------------|
E  :----------------|----------------|----------------|----------------|

E  :----------------|----------------|----------------|----------------|
B  :----------------|----------------|----------------|----------------|
G  :---0------------|----------------|--------1--1-1-1|-1-1-------2----|
D  :-2-2--------0-2-|-3--2---0--2--0-|-2----2-2--2-2-2|-2-2------------|
A  :----------------|-----------3----|---3------------|-------2-0---0-2|
E  :----------------|----------------|----------------|----------------|

E  :----------------|----------------|----------------|----------------|
B  :----------------|1--0------------|---------1--0---|----------------|
G  :-----------0-2--|------2---------|-------0-2--0---|--0-----0-------|
D  :----0-2-3-------|----------------|0-2-3----------3|--2-1-2-2-----0-|
A  :-3--------------|---------0-2-3--|----------------|----------------|
E  :----------------|----------------|----------------|----------------|

E  :----------------|----------------|----------------|----------------|
B  :----------------|----------------|----------------|1--1-1-1-1-1----|
G  :----0-----------|----------------|-----0------0---|0--0-0-0-0-0----|
D  :2-3-2--0--2--0-2|---0-----------0|-2-3------------|--------------2-|
A  :----------3-----|-3---3---0-2-3--|----------------|----------------|
E  :----------------|-------3--------|----------------|----------------|

E  :-----------------|----------------|----------------|----------------|
B  :1-----1----1-----|----------------|----0-----0-----|---1----1-------|
G  :2-----2----2-~---|-----2-----2----|------1------1--|---2----2-------|
D  :---2-------------|-------3------3-|--------2------2|------------2---|
A  :-----------------|---------3------|3---------------|----------------|
E  :-----------------|----------------|----------------|----------------|

E  :----------------|----------------|----------------|----------------|
B  :----------------|----------------|-1--0-----------|---------0-1--0-|
G  :-----------2----|------------0-2-|-------2--------|--0---2--0-2--0-|
D  :0---------------|-----0-2-3------|----------------|--0-2-3---------|
A  :---3---2------0-|2-3-------------|----------0-2-3-|----------------|
E  :----------------|----------------|----------------|----------------|

E  :----------------|----------------|---------------- 1|-------------0----|
B  :----------------|------------1---|--3-3----------- ||--1-1--1-1---1----|
G  :-2---------0----|------------0---|--0-0-----------*||--0-0--2-2---0----|
D  :-3---2-1-2-2---0|-2-3-2-0--------|----------------*||-------------2----|
A  :----------------|----------------|---------------- ||-------------3----|
E  :----------------|-----------*----|------*--------- ||s-------------s---|

thats it enjoy
comments
print report bad tab
4 comments total. Showing first comments.
0 reply
drunkenpanda15 wrote on July 19 2006, 12:19 am

good job i like it

0 reply
TK1 wrote on December 13 2006, 08:04 pm

the first chord in the intro is Am according to my guitar teacher, as opposed to the A you have there. otherwise perfect tab thx.

0 reply
Patrick P wrote on August 6 2015, 04:10 am

Actualy listen to the song and you hear them play an Amaj chord!
Weird but true.

I want to post or [tab]
guest
You may want to rate the tab now too:
select rating
Please do not post tabs as comments. Select "correction" instead!