Oops, an error
Loading. Please wait.

Walk Dont Run Tab

version 5
version 5
6,134 views 9 this week
1 commentread comment
1 2 3 4 5
x 6
add to favorites
launch autoscroll
font size
0
reset
how to read this tab
guitar tuner
Autoscroll
slow
fast
+/-
esc
set tempo
stop
Help us to improve Ultimate-Guitar.com Take our survey!
×
Author
WALK DON'T RUN


The Ventures



  INTRO


                                     x x x x x x x x x x x x x x x x
e|---------------------------------|---------------------------------|
B|---------------------------------|---------------------------------|
G|---------------------------------|---------------------------------|
D|---------------------------------|---------------------------------|
A|---------------------------------|---------------------------------|
E|---------------------------------|---------------------------------|




   X       x   x   X       x         X       x   x   X       x
e|---------------------------------|---------------------------------|
B|---------------------------------|---------------------------------|
G|---------------------------------|---------------------------------|
D|---------------------------------|---------------------------------|
A|---------------------------------|---------------------------------|
E|---------------------------------|---------------------------------|




   A               G                 F           E
e|---------------------------------|---------------------------------|
B|---------------------------------|---------------------------------|
G|---------------------------------|---------------------------------|
D|---------------------------------|---------------------------------|
A|---------------------------------|---------------------------------|
E|---------------------------------|---------------------------------|




   A               G                 F           E
e|---------------------------------|---------------------------------|
B|---------------------------------|---------------------------------|
G|---------------------------------|-----------------------------2---|
D|---------------------------------|---------------------2-----------|
A|---------------------------------|---------------------------------|
E|---------------------------------|---------------------------------|




  VERSE


   A               G                 F           E
e|---------------------------------|---------------------------------|
B|---------------------------------|-------------1-----------0-------|
G|---------------------------------|-----0---2---2-------------------|
D|---------------------0---2---3---|---------------------------------|
A|-----0---2---3-------------------|---------------------------------|
E|---------------------------------|---------------------------------|




   A               G                 F           E
e|---------------------------------|---------------------------------|
B|---------------------------------|-----0---1-------0---------------|
G|-2-------------------0---1---2---|-----0---2-------0-------2-------|
D|---------------------0---2---3---|-------------------------3-------|
A|-----0---2---3-------------------|---------------------------------|
E|---------------------------------|---------------------------------|




   C                                 G
e|---------------------------------|---------------------------------|
B|---------------------------------|---------------------------------|
G|---------------------------------|---------------------------------|
D|-2-\-1---2---2-------------------|-----0---2---3---2-------0-------|
A|---------------------------------|---------------------------------|
E|---------------------------------|---------------------------------|



   C                           E
e|---------------------------------|---------------------------------|
B|---------------------------------|---------------------------------|
G|-----------------------------1---|-----1---1---1---1---1---1-------|
D|---------0H2P0-------0-------2---|-----2---2---2---2---2---2---2---|
A|-3---------------3---------------|---------------------------------|
E|---------------------------------|---------------------------------|




  VERSE


   A               G                 F           E
e|---------------------------------|---------------------------------|
B|---------------------------------|-------------1-----------0-------|
G|-2-------------------------------|-----0---2---2-------------------|
D|---------------------0---2---3---|---------------------------------|
A|-----0---2---3-------------------|---------------------------------|
E|---------------------------------|---------------------------------|




   A               G                 F           E
e|---------------------------------|---------------------------------|
B|---------------------------------|-----0---1-----------------------|
G|-2-------------------------------|-----0---2---0-------------------|
D|---------------------0---2---3---|-------------------------3-------|
A|-----0---2---3-------------------|---------------------------------|
E|---------------------------------|---------------------------------|




   C                                 G
e|---------------------------------|---------------------------------|
B|---------------------------------|---------------------------------|
G|---------------------------------|---------------------------------|
D|-2-\-1-------2-------------------|-----0---2---3---2-------0-------|
A|---------------------------------|---------------------------------|
E|---------------------------------|---------------------------------|



   C
e|---------------------------------|---------------------------------|
B|---------------------------------|---------------------------------|
G|---------------------------------|---------------------------------|
D|---------0H2P0-------0-----------|---------------------0---2---3---|
A|-3---------------3-----------3---|---------0---2---3---------------|
E|---------------------------------|-----3---------------------------|




  BRIDGE


   C
e|---------------------------------|---------------------------------|
B|---------------------------------|-----1-------1---1---1---1---1---|
G|-0-----------0-------------------|-----0-------0---0---0---0---0---|
D|---------------------------------|-----2-------2---2---2---2---2---|
A|---------------------------------|---------------------------------|
E|---------------------------------|---------------------------------|




   Am
e|---------------------------------|---------------------------------|
B|-----1-----------1---------------|-1-W-----------------------------|
G|-----2-----------2---------------|-2-W-----------------------------|
D|-----2-------2-------------------|-2-W-----------------------------|
A|---------------------------------|---------------------------------|
E|---------------------------------|---------------------------------|




   F                                 E
e|---------------------------------|---------------------------------|
B|---------------------------------|-0-----------0-------------------|
G|-2-----------2-------------------|-----1---------------1-----------|
D|-----3---------------3-----------|---------2---------------2-------|
A|---------3---------------3-------|---------------------------------|
E|---------------------------------|---------------------------------|




   Am                                E
e|---------------------------------|---------------------------------|
B|-1-------------------------------|---------------------------------|
G|-2-------------------------------|---------------------------------|
D|-2-------------------------0H2---|---------0-----------------------|
A|---------------------------------|-----------------3-------2-------|
E|---------------------------------|---------------------------------|




  VERSE


   A               G                 F           E
e|---------------------------------|---------------------------------|
B|---------------------------------|-------------1-----------0-------|
G|-2-------------------------------|-----0---2---2-------------------|
D|---------------------0---2---3---|---------------------------------|
A|-----0---2---3-------------------|---------------------------------|
E|---------------------------------|---------------------------------|




   A               G                 F           E
e|---------------------------------|---------------------------------|
B|---------------------------------|-----0---1-------0---------------|
G|-2-------------------------------|-----0---2-------0-------2-------|
D|---------------------0---2---3---|-------------------------3-------|
A|-----0---2---3-------------------|---------------------------------|
E|---------------------------------|---------------------------------|




   C                                 G
e|---------------------------------|---------------------------------|
B|---------------------------------|---------------------------------|
G|-0-------------------------------|---------------------------------|
D|-2-\-1---2---2-------------------|-----0---2---3---2-------0-------|
A|---------------------------------|---------------------------------|
E|---------------------------------|---------------------------------|



   C                                                 G
e|---------------------------------|---------------------------------|
B|---------------------------------|-----1-----------3-------3-------|
G|---------------------------------|-----0-----------0-------0-------|
D|---------0H2P0-------------------|-----2-----------0-------0-------|
A|-3---------------3---------------|-----3-----------2-------2-------|
E|---------------------------------|---------------------------------|




  DRUMS SOLO


   C   N.C.

   X       x   x   X       x         X       x   x   X       x
e|---------------------------------|---------------------------------|
B|-1-------------------------------|---------------------------------|
G|-0-------------------------------|---------------------------------|
D|-2-------------------------------|---------------------------------|
A|-3-------------------------------|---------------------------------|
E|---------------------------------|---------------------------------|




   X       x   x   X       x         x x x x x x x x x x x x x x x x
e|---------------------------------|---------------------------------|
B|---------------------------------|---------------------------------|
G|---------------------------------|---------------------------------|
D|---------------------------------|---------------------------------|
A|---------------------------------|---------------------------------|
E|---------------------------------|---------------------------------|




  INTERLUDE


   A               G                 F           E
e|---------------------------------|---------------------------------|
B|---------------------------------|---------------------------------|
G|---------------------------------|---------------------------------|
D|---------------------------------|---------------------------------|
A|---------------------------------|---------------------------------|
E|---------------------------------|---------------------------------|




   A               G                 F           E
e|---------------------------------|---------------------------------|
B|---------------------------------|---------------------------------|
G|---------------------------------|-----------------------------2---|
D|---------------------------------|---------------------2-----------|
A|---------------------------------|---------------------------------|
E|---------------------------------|---------------------------------|




  VERSE


   A               G                 F           E
e|---------------------------------|---------------------------------|
B|---------------------------------|-------------1-----------0-------|
G|---------------------------------|-----0---2---2-------------------|
D|---------------------0---2---3---|---------------------------------|
A|-----0---2---3-------------------|---------------------------------|
E|---------------------------------|---------------------------------|




   A               G                 F           E
e|---------------------------------|---------------------------------|
B|---------------------------------|-----0---1-------0---------------|
G|-2---------------------------2---|-----0---2-------0-------2-------|
D|---------------------0---2---3---|-------------------------3-------|
A|-----0---2---3-------------------|---------------------------------|
E|---------------------------------|---------------------------------|




   C                                 G
e|---------------------------------|---------------------------------|
B|---------------------------------|---------------------------------|
G|---------------------------------|---------------------------------|
D|-2-\-1---2---2-------------------|-----0---2---3---2-------0-------|
A|---------------------------------|---------------------------------|
E|---------------------------------|---------------------------------|



   C                           E
e|---------------------------------|---------------------------------|
B|---------------------------------|---------------------------------|
G|---------------------------------|-----1---1---1---1---1---1---1---|
D|---------0H2P0-------0-----------|-----2---2---2---2---2---2---2---|
A|-3---------------3---------------|---------------------------------|
E|---------------------------------|---------------------------------|




  VERSE


   A               G                 F           E
e|---------------------------------|---------------------------------|
B|---------------------------------|-------------1-----------0-------|
G|-2-------------------------------|-----0---2---2-------------------|
D|---------------------0---2---3---|---------------------------------|
A|-----0---2---3-------------------|---------------------------------|
E|---------------------------------|---------------------------------|




   A               G                 F           E
e|---------------------------------|---------------------------------|
B|---------------------------------|---------------------------------|
G|-2-------------------------------|-----0---2-------0---------------|
D|---------------------0---2---3---|-------------------------3-------|
A|-----0---2---3-------------------|---------------------------------|
E|---------------------------------|---------------------------------|




   C                                 G
e|---------------------------------|---------------------------------|
B|---------------------------------|---------------------------------|
G|---------------------------------|---------------------------------|
D|-2-\-1-------2-------------------|-----0---2---3---2-------0-------|
A|---------------------------------|---------------------------------|
E|---------------------------------|---------------------------------|



   C
e|---------------------------------|---------------------------------|
B|---------------------------------|---------------------------------|
G|---------------------------------|---------------------------------|
D|---------0H2P0-------0-----------|---------------------0---2---3---|
A|-3---------------3-----------3---|---------0---2---3---------------|
E|---------------------------------|-----3---------------------------|




  BRIDGE


   C
e|---------------------------------|---------------------------------|
B|---------------------------------|-----1-------1---1---1---1---1---|
G|-0-----------0-------------------|-----0-------0---0---0---0---0---|
D|---------------------------------|-----2-------2---2---2---2---2---|
A|---------------------------------|---------------------------------|
E|---------------------------------|---------------------------------|




   Am
e|---------------------------------|---------------------------------|
B|-----1-----------1---------------|-1-W-----------------------------|
G|-----2-----------2---------------|-2-W-----------------------------|
D|-----2-------2-------------------|-2-W-----------------------------|
A|---------------------------------|---------------------------------|
E|---------------------------------|---------------------------------|




   F                                 E
e|---------------------------------|---------------------------------|
B|---------------------------------|-0-----------0-------------------|
G|-2-----------2-------------------|-----1---------------1-----------|
D|-----3---------------3-----------|---------2---------------2-------|
A|---------3---------------3-------|---------------------------------|
E|---------------------------------|---------------------------------|




   Am                                E
e|---------------------------------|---------------------------------|
B|-1-------------------------------|---------------------------------|
G|-2-------------------------------|---------------------------------|
D|-2-------------------------0H2---|---------0-----------------------|
A|---------------------------------|-----------------3-------2-------|
E|---------------------------------|---------------------------------|




  VERSE


   A               G                 F           E
e|---------------------------------|---------------------------------|
B|---------------------------------|-------------1-----------0-------|
G|-2-------------------------------|-----0---2---2-------------------|
D|---------------------0---2---3---|---------------------------------|
A|-----0---2---3-------------------|---------------------------------|
E|---------------------------------|---------------------------------|




   A               G                 F           E
e|---------------------------------|---------------------------------|
B|---------------------------------|-----0---1-------0---------------|
G|-2-------------------------------|-----0---2-------0-------2-------|
D|---------------------0---2---3---|-------------------------3-------|
A|-----0---2---3-------------------|---------------------------------|
E|---------------------------------|---------------------------------|




   C                                 G
e|---------------------------------|---------------------------------|
B|---------------------------------|---------------------------------|
G|---------------------------------|---------------------------------|
D|-2-\-1---2---2-------------------|-----0---2---3---2-------0-------|
A|---------------------------------|---------------------------------|
E|---------------------------------|---------------------------------|




   C               F                 C
e|-0-------0-------1-------1-------|-----8-W-------------------------|
B|-1-------1-------1-------1-------|-----8-W-------------------------|
G|-0-------0-------2-------2-------|-----9-W-------------------------|
D|-2-------2-------3-------3-------|----10-W-------------------------|
A|---------------------------------|---------------------------------|
E|---------------------------------|---------------------------------|
Suggest correction
comments
print report bad tab
1 comment total.
0 reply
mikeya02 210 Feb 23, 2016 01:27 AM

This is the real deal. Note for note

guest
You may want to rate the tab now too:
select rating
Wanna post a correction for this tab? Suggest correction