Oops, an error
Loading. Please wait.

Walk Dont Run Tab

version 6
version 6
3,084 views 1 this week
no commentswrite comment
1 2 3 4 5
2 more votes to show rating
add to favorites
launch autoscroll
font size
0
reset
how to read this tab
guitar tuner
Autoscroll
slow
fast
+/-
esc
set tempo
stop
Help us to improve Ultimate-Guitar.com Take our survey!
×
Author
Difficulty
novice
Walk Don't Run '64
The Ventures
Tabbed by fishyfish235

Please Note:

My version of Walk Don't Run '64 is off of Walk Don't Run '64 in the album
Live in Japan '65.  Here is a youtube link that demonstrates my version of
Walk Don't Run '64: http://www.youtube.com/watch?v=ei9JqUvPDMA  I will
recommend you watch the video before you begin learning this tab.

Credits: to thelordofguitar - For tabbing most of the Verse

Intro:

E  :--------------------------------------------------|
B  :--------------------------------------------------|
G  :--------------------------------------------------|
D  :---------------------------------0-------------0--|
A  :---------------------------0--3----3-0---0--3----3|
E  :--00000000000////////44----------------3----------|

E  :--------------------------------------------------|
B  :--------------------------------------------------|
G  :--------------------------------------------------|
D  :-----------0-------------0------------------------|
A  :-0---0--3----3-0---0--3----3--0-------------------|
E  :---3-------------3--------------3-5555\3333\1111\0|

E  :-------------------------|
B  :-------------------------|
G  :-------------------------|
D  :-------------------------|
A  :-------------------------|
E  :000-5555\3333\1111\0-----|

Verse:

E  :----------------------------------------------------------------|
B  :----------------------1--0--------------------0--1--0-----------|
G  :--2--------------0-2--------2-------------2---0--2--0---2-------|
D  :2---------0-2-3-----------------------0-2-3-------------3----2-1|
A  :----0-2-3----------------------0-2-3----------------------------|
E  :----------------------------------------------------------------|

E  :----------------------------------------------------------|
B  :----------------------------------------------------------|
G  :---0------------------------------------------------------|
D  :-2-2--------0-2--3--2---0--2--0--2---0--------------------|
A  :---------------------------3-------3----------------------|
E  :----------------------------------------12\\\\\\\\\\\\\\--|

Verse #2:  Palm Mute this whole verse.

E  :-----------------------------------------------------------------|
B  :----------------------1--0---------------------1--0--------------|
G  :-2---------------0-2--------2----------------0-2--0-----0-----0--|
D  :----------0-2-3-----------------------0-2-3----------3--2-1-2-2--|
A  :---0-2-3-----------------------0-2-3-----------------------------|
E  :-----------------------------------------------------------------|

E  :----------------------------|
B  :----------------------------|
G  :---------0------------------|
D  :---0-2-3-2--0--2--0-2---0---|
A  :---------------3------3---3-|
E  :----------------------------|

Chorus:

E  :----------------8---8---8---8--8--8--8--8--8--8--8--8--5---5---5---5--5|
B  :----------------8---8---8---8--8--8--8--8--8--8--8--8--5---5---5---5--5|
G  :----------------9---9---9---9--9--9--9--9--9--9--9--9--5---5---5---5--5|
D  :---------0-2-3--10--10--10--10-10-10-10-10-10-10-10-10-7---7---7---7--7|
A  :---0-2-3---------------------------------------------------------------|
E  :-3---------------------------------------------------------------------|

E  :--5--5--5--5--5--5--5---5-----5--------7-----7-------5-----------------|
B  :--5--5--5--5--5--5--5-----6-----6--------9-----9-----5-----------------|
G  :--5--5--5--5--5--5--5-------5-----5--------9-----9---5-----------------|
D  :--7--7--7--7--7--7--7--------------------------------7-----------------|
A  :-----------------------------------------------------------------------|
E  :-------------------------------------------------------12\\\\\\\\\\\\\-|

Verse #3:  Palm Mute this whole verse.

E  :----------------------------------------------------------------|
B  :----------------------1--0--------------------0--1--0-----------|
G  :--2--------------0-2--------2-------------2---0--2--0---2-------|
D  :----------0-2-3-----------------------0-2-3-------------3----2-1|
A  :----0-2-3----------------------0-2-3----------------------------|
E  :----------------------------------------------------------------|

E  :-----------------------------------------------------|
B  :-----------------------------------------------------|
G  :---0-------------------------------------------------|
D  :-2-2--------0-2--3--2---0--2--0--2---0---------------|
A  :---------------------------3-------3---3-------------|
E  :-----------------------------------------33333333----|

Interlude:

E  :--------------------------------------------------|
B  :--------------------------------------------------|
G  :--------------------------------------------------|
D  :---------------------------------0-------------0--|
A  :---------------------------0--3----3-0---0--3----3|
E  :--00000000000////////44----------------3----------|

E  :--------------------------------------------------|
B  :--------------------------------------------------|
G  :--------------------------------------------------|
D  :-----------0-------------0------------------------|
A  :-0---0--3----3-0---0--3----3--0-------------------|
E  :---3-------------3--------------3-5555\3333\1111\0|

E  :-------------------------|
B  :-------------------------|
G  :-------------------------|
D  :-------------------------|
A  :-------------------------|
E  :000-5555\3333\1111\0-----|

Verse:

E  :----------------------------------------------------------------|
B  :----------------------1--0--------------------0--1--0-----------|
G  :--2--------------0-2--------2-------------2---0--2--0---2-------|
D  :2---------0-2-3-----------------------0-2-3-------------3----2-1|
A  :----0-2-3----------------------0-2-3----------------------------|
E  :----------------------------------------------------------------|

E  :----------------------------------------------------------|
B  :----------------------------------------------------------|
G  :---0------------------------------------------------------|
D  :-2-2--------0-2--3--2---0--2--0--2---0--------------------|
A  :---------------------------3-------3----------------------|
E  :----------------------------------------12\\\\\\\\\\\\\\--|

Verse #2:  Palm Mute this whole verse.

E  :-----------------------------------------------------------------|
B  :----------------------1--0---------------------1--0--------------|
G  :-2---------------0-2--------2----------------0-2--0-----0-----0--|
D  :----------0-2-3-----------------------0-2-3----------3--2-1-2-2--|
A  :---0-2-3-----------------------0-2-3-----------------------------|
E  :-----------------------------------------------------------------|

E  :----------------------------|
B  :----------------------------|
G  :---------0------------------|
D  :---0-2-3-2--0--2--0-2---0---|
A  :---------------3------3---3-|
E  :----------------------------|

Chorus:

E  :----------------8---8---8---8--8--8--8--8--8--8--8--8--5---5---5---5--5|
B  :----------------8---8---8---8--8--8--8--8--8--8--8--8--5---5---5---5--5|
G  :----------------9---9---9---9--9--9--9--9--9--9--9--9--5---5---5---5--5|
D  :---------0-2-3--10--10--10--10-10-10-10-10-10-10-10-10-7---7---7---7--7|
A  :---0-2-3---------------------------------------------------------------|
E  :-3---------------------------------------------------------------------|

E  :--5--5--5--5--5--5--5---5-----5--------7-----7-------5-----------------|
B  :--5--5--5--5--5--5--5-----6-----6--------9-----9-----5-----------------|
G  :--5--5--5--5--5--5--5-------5-----5--------9-----9---5-----------------|
D  :--7--7--7--7--7--7--7--------------------------------7-----------------|
A  :-----------------------------------------------------------------------|
E  :-------------------------------------------------------12\\\\\\\\\\\\\-|

Verse #3:  Palm Mute this whole verse.

E  :----------------------------------------------------------------|
B  :----------------------1--0--------------------0--1--0-----------|
G  :--2--------------0-2--------2-------------2---0--2--0---2-------|
D  :----------0-2-3-----------------------0-2-3-------------3----2-1|
A  :----0-2-3----------------------0-2-3----------------------------|
E  :----------------------------------------------------------------|

E  :-----------------------------------------------------|
B  :-----------------------------------------------------|
G  :---0-------------------------------------------------|
D  :-2-2--------0-2--3--2---0--2--0--2---0---------------|
A  :---------------------------3-------3---3-------------|
E  :-----------------------------------------33333333----|

Ending:

E  :---------------------------5----|
B  :---------------------------5----|
G  :---------------------------5----|
D  :---------------------------7----|
A  :---------------------------7----|
E  :--00000000000////////55----5----|
Suggest correction
Give kudos to tab author, rate the tab!
1 2 3 4 5
comments
print report bad tab
guest
You may want to rate the tab now too:
select rating
Wanna post a correction for this tab? Suggest correction