Oops, an error
Loading. Please wait.

Wipe Out Tab

version 1
version 1

Whole song

29,702 views 165 this week
2 commentsread comments
1 2 3 4 5
x 10
add to favorites
launch autoscroll
font size
0
reset
how to read this tab
guitar tuner
Autoscroll
slow
fast
+/-
esc
set tempo
stop
Help us to improve Ultimate-Guitar.com Take our survey!
×
Author
Artist: Ventures
Song: Wipe out

e|----------------------------------------------------------------|
B|----------------------------------------------------------------|
G|----------------------------------------------------------------|
D|----------------------------------------------------------------|
A|--1-2-3-3-3-1-----1-2-3-3-3-1-----1-2-3-3-3-1-----1-2-3-3-3-----|
E|3-------------3-3-------------3-3-------------3-3-----------3-3-|

e|------------------------------------------------------------------|
B|------------------------------------------------------------------|
G|------------------------------------------------------------------|
D|------------------1-2-3-3-3-1-----1-2-3-3-3-1---------------------|
A|1-2-3-3-3-1-----3-------------3-3-------------3---1-2-3-3-3-1-----|
E|------------3-3---------------------------------3-------------3-3-|

e|--------------------------------------------------------------------|
B|--------------------------------------------------------------------|
G|--------------------------------------------------------------------|
D|----------------3-4-5-5-5-3-----5-4-3-3-3-1-------------------------|
A|1-2-3-3-3-1---5-------------5-5-------------3---1-2-3-3-3-1-----3-1-|
E|------------3---------------------------------3-------------3-3-----|

e|------------|
B|------------|
G|------------|
D|------------|
A|------------|
E|3-3-3-3-3-3-|

e|--------------------------------------------------------------------------|
B|--------------------------------------------------------------------------|
G|--------------------------------------------------------------------------|
D|5----------5----------10----------5----------12-----10-----5--------------|
A|3----------3-----------8----------3----------10------8-----3-----5-5-5-5-5|
E|-----------------------------------------------------------------3-3-3-3-3|

e|----------------------------------------------------------------|
B|----------------------------------------------------------------|
G|----------------------------------------------------------------|
D|----------------------------------------------------------------|
A|--1-2-3-3-3-1-----1-2-3-3-3-1-----1-2-3-3-3-1-----1-2-3-3-3-----|
E|3-------------3-3-------------3-3-------------3-3-----------3-3-|

e|------------------------------------------------------------------|
B|------------------------------------------------------------------|
G|------------------------------------------------------------------|
D|------------------1-2-3-3-3-1-----1-2-3-3-3-1---------------------|
A|1-2-3-3-3-1-----3-------------3-3-------------3---1-2-3-3-3-1-----|
E|------------3-3---------------------------------3-------------3-3-|

e|--------------------------------------------------------------------|
B|--------------------------------------------------------------------|
G|--------------------------------------------------------------------|
D|----------------3-4-5-5-5-3-----5-4-3-3-3-1-------------------------|
A|1-2-3-3-3-1---5-------------5-5-------------3---1-2-3-3-3-1-----3-1-|
E|------------3---------------------------------3-------------3-3-----|

e|------------|
B|------------|
G|------------|
D|------------|
A|------------|
E|3-3-3-3-3-3-|

e|--------------------------------------------------------------------------|
B|--------------------------------------------------------------------------|
G|--------------------------------------------------------------------------|
D|5----------5----------10----------5----------12-----10-----5--------------|
A|3----------3-----------8----------3----------10------8-----3-----5-5-5-5-5|
E|-----------------------------------------------------------------3-3-3-3-3|


(Then is improved blues solo and rhythm guitar plays like this)

e|----------------------------------------------------------------------------------------|
B|----------------------------------------------------------------------------------------|
G|----------------------------------------------------------------------------------------|
D|5-5-5-5-5-5-5-5-5-5-5-10-10-10-10-10-10-5-5-5-5-5-5-12-12-12-12-10-10-10-5-5-5----------|
A|3-3-3-3-3-3-3-3-3-3-3--8--8--8--8--8--8-3-3-3-3-3-3-10-10-10-10--8--8--8-3-3-3-5-5-5-5-5|
E|-------------------------------------------------------------------------------3-3-3-3-3|
Suggest correction
comments
print report bad tab
2 comments total.
0 reply
DessertSun 18 Sep 02, 2009 05:50 AM

All the other guys who made this are just wrong the original version of this song belongs the the ventures and you made a amazingly well tab thanks alot!!! 5 stars!

0 reply
Sakuboi 206 Sep 02, 2009 12:58 PM

Thanks!!

guest
You may want to rate the tab now too:
select rating
Wanna post a correction for this tab? Suggest correction