Oops, an error
Loading. Please wait.

Wipe Out Tab

version 1
version 1

Whole song

26,969 views 75 this week
2 commentsread comments
1 2 3 4 5
accurate
x 9
add to favorites
launch autoscroll
font size
0
reset
how to read this tab
guitar tuner
Autoscroll
slow
fast
+/-
esc
set tempo
stop
Help us to improve Ultimate-Guitar.com Take our survey!
×
Author
The Ventures
Wipe out

e|----------------------------------------------------------------|
B|----------------------------------------------------------------|
G|----------------------------------------------------------------|
D|----------------------------------------------------------------|
A|--1-2-3-3-3-1-----1-2-3-3-3-1-----1-2-3-3-3-1-----1-2-3-3-3-----|
E|3-------------3-3-------------3-3-------------3-3-----------3-3-|

|------------------------------------------------------------------|
|------------------------------------------------------------------|
|------------------------------------------------------------------|
|------------------1-2-3-3-3-1-----1-2-3-3-3-1---------------------|
|1-2-3-3-3-1-----3-------------3-3-------------3---1-2-3-3-3-1-----|
|------------3-3---------------------------------3-------------3-3-|

|--------------------------------------------------------------------|
|--------------------------------------------------------------------|
|--------------------------------------------------------------------|
|----------------3-4-5-5-5-3-----5-4-3-3-3-1-------------------------|
|1-2-3-3-3-1---5-------------5-5-------------3---1-2-3-3-3-1-----3-1-|
|------------3---------------------------------3-------------3-3-----|

|------------|
|------------|
|------------|
|------------|
|------------|
|3-3-3-3-3-3-|

|--------------------------------------------------------------------------|
|--------------------------------------------------------------------------|
|--------------------------------------------------------------------------|
|5----------5----------10----------5----------12-----10-----5--------------|
|3----------3-----------8----------3----------10------8-----3-----5-5-5-5-5|
|-----------------------------------------------------------------3-3-3-3-3|

All of this 2x


Then is improved blues solo and rhythm guitar plays like this:

|--------------------------------------------------------------------------|
|--------------------------------------------------------------------------|
|--------------------------------------------------------------------------|
|5-5-5-5-5-5-5-5-5-5-5-1010101010105-5-5-5-5-5121212121010105-5-5----------|
|3-3-3-3-3-3-3-3-3-3-3--8-8-8-8-8-83-3-3-3-3-310101010-8-8-83-3-3-5-5-5-5-5|
|-----------------------------------------------------------------3-3-3-3-3|

Suggest correction
comments
print report bad tab
2 comments total.
-1 reply
DessertSun 18 wrote on September 2 2009, 05:50 am

All the other guys who made this are just wrong the original version of this song belongs the the ventures and you made a amazingly well tab thanks alot!!! 5 stars!

0 reply
Sakuboi 206 wrote on September 2 2009, 12:58 pm

Thanks!!

guest
You may want to rate the tab now too:
select rating
Please do not post tabs as comments. Select "correction" instead!