Oops, an error
Loading. Please wait.

Wipeout Live Tab

14,123 views 1 this week
no commentswrite comment
1 2 3 4 5
please rate
add to favorites
launch autoscroll
font size
0
reset
how to read this tab
guitar tuner
Tab Pro tools
  • play this tab
  • loop segment
  • change instrument
  • show fretboard
  • metronome
×
Best way to learn
"Wipeout Live"
Autoscroll
slow
fast
+/-
esc
set tempo
stop
Contributor
Wipe Out live (solos)
by the Ventures
tab by piesore

Check out the video here, this is my favorite rendition of the song:

http://www.youtube.com/watch?v=T8__EwAT8VM

Solos are in the key of C minor

solo 1

e|-88-11br-8---------------------------------------------------------------|
B|-88-------11-8--8---8----------------------------------11----------------|
G|--------------10b-10b-r108--108---------8---88--8--10b--r10p8--10-9h10--9|
D|--------------------------10----10-10810--10--10-------------10-------10-|
A|-------------------------------------------------------------------------|
E|-------------------------------------------------------------------------|


e|--------8--------8----------8----------11-13-11-13b-13b-r13----------------|
B|---11----11----11-11---11----11--/1313---------------------13------11------|
G|10b--b10----10b-----10b--b10----------------------------------11h12--12----|
D|---------------------------------------------------------------------------|
A|---------------------------------------------------------------------------|
E|---------------------------------------------------------------------------|

1:25
e|--------------------------------------------------------------------------------|
B|1311----------------------------------------------------------------------------|
G|----\10--8--8-10p8-10b-10b-r10p8--8--10b-10b-r10p8--8---------------------------|
D|----------10--------------------10----------------10------8-----8---------------|
A|------------------------------------------------------8h10--8h10--a-billion-tims|
E|--------------------------------------------------------------------------------|


e|-----------------------------------------------------------------------------------------|
B|-----------------------------------------------------------------------------------------|
G|------------------------------------------------8-10---10b-10b-r10p8--8-10b-10b-r10p8--8-|
D|-----8----8----8-----8----8------8----8-----8-10--------------------10---------------10--|
A|-8h10-8h10-8h10-8h10--8h10---8h10-8h10-8h10----------------------------------------------|
E|-----------------------------------------------------------------------------------------|

solo 2
2:09
e|-6/8-6/8--6/8-6/8--6/8-6/8--6/8-6/8--8p6h8-----6---8---6---8---6----------|
B|-6/8-6/8--6/8-6/8--6/8-6/8--6/8-6/8---------6h8-6h8-6h8-6h8-6h8-----------|
G|--------------------------------------------------------------------------|
D|--------------------------------------------------------------------------|
A|--------------------------------------------------------------------------|
E|--------------------------------------------------------------------------|

e|----6---8---6---8---6------6---8---6---8---6-----6---8---6---8-8----------|
B|-6h8-6h8-6h8-6h8-6h8----6h8-6h8-6h8-6h8-6h8---6h8-6h8---------------------|
G|--------------------------------------------------------------------------|
D|--------------------------------------------------------------------------|
A|--------------------------------------------------------------------------|
E|--------------------------------------------------------------------------|

e|----88----8---8--------8----8-----------------------------------------------|
B|----88-----------------8----8-----------------------------------------------|
G|-10b---10b-b10-r108-10b--10b--r108------------------------------------------|
D|-----------------------------------1010p810-8h10-8h10-8---------------------|
A|-------------------------------------------------------8h10-8h10-10p86-86---|
E|----------------------------------------------------------------------------|

solo 3
e|------8--11p811p8-------------------------------------------------------------|
B|-8-b11-----------11b------------------------------------------------------11--|
G|---------------------r108---8-8--10b 10b-r108---8-10b 10b-r108--8----8-10b----|
D|--------------------------10------------------10--------------10---10---------|
A|------------------------------------------------------------------------------|
E|------------------------------------------------------------------------------|

e|b13-r13-11--11--11-b13-r13-11--11-15b-15-15b-15--151311--11---------------|
B|----------13--13-------------13------------------------13--13-------------|
G|-------------------------------------------------------------b10r108------|
D|--------------------------------------------------------------------------|
A|--------------------------------------------------------------------------|
E|--------------------------------------------------------------------------|

e|----------11--------11---------------------------------------------------|
B|-------------------------------------------------------------------------|
G|-------10b--r108-10b---r108--8--8-10b-10b-r108---8--10b 10b-r108---8-----|
D|1010810--------------------10-10---------------10---------------10-------|
A|-------------------------------------------------------------------------|
E|-------------------------------------------------------------------------|

e|--------------------------------------------------------------------------|
B|--------------------------------------------------------------------------|
G|-----8888------8888---------------------------8-10p8-10b10b108------------|
D|-----8888------8888----8---108--8--108--8-8-10----------------108---------|
A|-8h10------8h10----8h10--10---10-10---------------------------------------|
E|--------------------------------------------------------------------------|
comments
We did not receive enough feedback on this tab! Please rate:
print report bad tab
1 2 3 4 5
I want to post or [tab]
guest
You may want to rate the tab now too:
select rating
Please do not post tabs as comments. Select "correction" instead!