Oops, an error
Loading. Please wait.

Yellow Jacket Tab

5,428 views 6 this week
no commentswrite comment
1 2 3 4 5
worth learning
x 3
add to favorites
launch autoscroll
font size
0
reset
how to read this tab
guitar tuner
Tab Pro tools
  • play this tab
  • loop segment
  • change instrument
  • show fretboard
  • metronome
Autoscroll
slow
fast
+/-
esc
set tempo
stop
Contributor
Difficulty
intermediate
----------------------------------------------------------------------------
                             Yellow Jacket - Ventures, The
----------------------------------------------------------------------------
Tabbed by: Tanner Hintzman (acoustic_style)
Email:--

Tuning:Standard

intro
e|-----------------------|
B|-----------------------|
G|-----------------------|
D|-----------------------|
A|-----------------------|  x5
E|----/5-5-5--/5-5-5-----|

main riff
e|--------------------------------------------|
B|--------------------------------------------|
G|--------------------------------------------|
D|--------------------------------------------|
A|---------0--3--4~--------0--3--4--3--4--0~--|
E|---0--2------------0--2---------------------|  x2

e|-------------------------------------------------------------------------|
B|-------------------------------------------------------------------------|
G|-------------------------------------------------------------------------|
D|-------------------------------------------------------------------------|
A|------0-2-3~-----0-2-3-2-3-2h3p2p0-----3/4-----0-3-4-3-4-0---------------|
E|--0-2-------0-2--------------------2-0-----0-2---------------------------|

e|-------------------------------------------------------------|
B|-------------------------------------------------------------| repeat  
G|-------------------------------------------------------------| 
D|-----------------------------------------2-2-2-2-------------|   
A|------0-3-2~-----0-2-3-2-3-2h3p2p0-------0-0-0-0--2-2-2-2-2--|  
E|--0-2--------0-2--------------------2-0-----------0-0-0-0-0--|

e|-------------------------------------------------------------------------|
B|-------------------------------------------------------------------------|
G|-------------------------------------------------------------------------|
D|------0-3-4~-----0-3p2p0-3p2p0-3p2p0-3p2p0-------------------------------|
A|--0-2--------0-2---------------------------3-4~-----0-3p2p0-3p2p0-3p2p0--|
E|------------------------------------------------0-2----------------------|

e|-----------------------------------------------------------|
B|-----------------------------------------------------------| Repeat the 
G|------------------------------------------------7----------| main riff
D|------------------------2-4-2-----------5-7-7/9---9-7-5h7--| then go to 
A|--3p2p0--1/2~-----0-2/4-------4-2--/7-7--------------------| solo.
E|--------------0-2------------------------------------------|

Solo
e|-------------------------------------------------------------------------|
B|-------------------------------------------------------------------------|
G|-------------------------------------------------------------------------|
D|---/14-14-14-12-12-12h14-14-14-14-12-12-12h14-14-14-14~-14-14-14-14b-----|
A|-------------------------------------------------------------------------|
E|-------------------------------------------------------------------------|

e|-------------------------------------------------------------------------|
B|---------------------------------10---10----10---------------------------|
G|--7b-----------7b-----------9b11---9b----9b----9b-//////--9b-r9-7--7h9p7~|
D|-----9-7-9-7-9----9-7-9-7-9--------------------------------------9-------|
A|-------------------------------------------------------------------------|
E|-------------------------------------------------------------------------|

e|-----------------------------|---------------------|
B|-----------------------------|---5-----------------|
G|-7p5---5---------------------|-----7-5---5h7p5~----|
D|-----7------------2-2-2------|---------7---------x4|
A|---------7p5---5--0-0-0--2~--|-7-------------------|
E|-------------7-----------0~--|-5-------------------|

e|-------------------------------------------------------------------------|
B|--------------------5------------------5---------------------------------|
G|-----7-5---5h7--------7-5---5h7p5--------7-5---5h7p5-----9-7----7h9------|
D|--7------7----------------7------------------7---------9------9----------|
A|--5--------------7------------------7------------------7-----------------|
E|-----------------5------------------5------------------------------------|

e|-------------------------------------------------------------------------|
B|------------------5------------------------------------------------------|
G|-----7-5---5h7------7-5---5h7p5------------------------------------------|
D|--7------7--------------7---------2-2-2-2-------0-3-4-----0-3p2p0-3p2p0--|
A|--5------------7------------------0-0-0-0---0-2-------0-2----------------|
E|---------------5---------------------------------------------------------|

e|-------------------------------------------------------------------------|
B|-------------------------------------------------------------------------|
G|-------------------------------------------------------------------------|
D|--3p2p0-3p2p0-----------------------------------------------------2-4-2--|
A|---------------3/4------0-3p2p0-3p2p0-3p2p0-3p2p0---1/2-----0-2/4--------|
E|--------------------0-2---------------------------------0-2--------------|

e|-------------------------------------------------------------------------|
B|-------------------------------------------------------------------------|
G|---------------------7---------------------------------------------------|
D|-------------5-7-7/9---9-7-5h7-------------------------------------------|
A|--4-2h4-/7-7---------------------3/4------0-3-4-3-4-0------0-3-4---------|
E|--------------------------------------0-2--------------0-2-------0-2-----|

e|-------------------------------------------------------------------------|
B|-------------------------------------------------------------------------|
G|-------------------------------------------------------------------------|
D|-------------------------------------------------------------------------|
A|--0-3-4-3-4-0------2-3~-----0-2-3-2-3-2h3p2p0-----3/4-----0-3-4-3-4-0----|
E|---------------0-2------0-2------------------2-0------0-2----------------|

e|--------------------------------------------------------------------------
B|--------------------------------------------------------------------------
G|-------------------------------------------2-2---7-7--2-2-2-2~------------
D|-------------------------------------------2-2---7-7--2-2-2-2~------------
A|------0-3-2~------0-2-3-2-3-2h3p2p0--------0-0---5-5--0-0-0-0~------------
E|--0-2---------0-2--------------------2-0----------------------------------

| /slide up
| \  slide down
| h  hammer-on
| p  pull-off
| ~  vibrato
| +  harmonic
| x  Mute note
comments
We did not receive enough feedback on this tab! Please rate:
print report bad tab
1 2 3 4 5
I want to post or [tab]
guest
You may want to rate the tab now too:
select rating
Please do not post tabs as comments. Select "correction" instead!