Oops, an error
Loading. Please wait.

Out Of Breath Bass Tab

54 views 1 this week
no commentswrite comment
1 2 3 4 5
3 more votes to show rating
add to favorites
launch autoscroll
font size
0
reset
guitar tuner
Autoscroll
slow
fast
+/-
esc
set tempo
stop
Help us to improve Ultimate-Guitar.com Take our survey!
×
Author
Difficulty
novice
Song: Out Of Breath
Artist: Venus
Album: Welcome To the Modern Dance Hall
Year: 1999
Tabber: beranger80@hotmail.com

Note:
There is no guitar on this track.
So I've wrote the bass and the other instruments melodies.
I only have the base note for the orchestral parts.
I hope this tab is as good as the song.


First bass riff played until 2:43:

G------------|----------|----------|---------------|
D------------|----------|----------|---------------|
A---2-2-2-2--|----------|-4-4-4-4--|---------------|
E------------|-3-3-3-3--|----------|---2-2-2-2-----|


First organ riff: (0:57)

e|------------|-----------|----------|----------|----------|-------------|
B|------------|-----------|----------|----------|----------|-------------|
G|--11--------|--12-------|--11------|--9-------|--7-------|--6----------|
D|------------|-----------|----------|----------|----------|-------------|
A|------------|-----------|----------|----------|----------|-------------|
E|------------|-----------|----------|----------|----------|-------------|
            


Second organ riff (1:40)

e|------------|-----------|----------|----------|----------|-------------|
B|------------|-----------|----------|----------|----------|-------------|
G|------------|-----------|----------|----------|----------|-------------|
D|---9--------|--11-------|--9-------|--4-------|--9-------|--8----------|
A|------------|-----------|----------|----------|----------|-------------|
E|------------|-----------|----------|----------|----------|-------------|



First organ riff: (2:01)



Strings Ensemble: (2:21)

e|------------|----------|----------|----------|----------|-------------|
B|------------|----------|----------|----------|----------|-------------|
G|--11--------|-12-------|--11------|--12------|--11------|--12---------|
D|------------|----------|----------|----------|----------|-------------|
A|------------|----------|----------|----------|----------|-------------|
E|------------|----------|----------|----------|----------|-------------|



Change at 2:43 (played with orchestral variations but always on the same chords until the outro)

e|------------|------------|------------|-------------|
B|------------|------------|------------|-------------|
G|--11--------|--11--------|-12---14----|--16----18---|
D|------------|------------|------------|-------------|
A|------------|------------|------------|-------------|
E|------------|------------|------------|-------------|
 |            |            |            |             |
g|------------|------------|------------|-------------|
d|------------|------------|------------|-------------|
a|------------|------------|------------|-------------| 
e|--2-2-2-2---|--2-2-2-2---|-3-3--5-5---|--7-7--9-9---|



Outro (4:15)

g------------|----------|----------|---------------|
d------------|----------|----------|---------------|
a---2-2-2-2--|----------|-4-4-4-4--|---------------|
e------------|-3-3-3-3--|----------|---2-2-2-2-----|
Suggest correction
Give kudos to tab author, rate the tab!
1 2 3 4 5
comments
print report bad tab
guest
You may want to rate the tab now too:
select rating
Wanna post a correction for this tab? Suggest correction