Oops, an error
Loading. Please wait.

Settle intro tab

877 views 3 this week
no commentswrite comment
1 2 3 4 5
2 more votes to show rating
add to favorites
×
Save as Personal and add changes to this tab that will be seen only by you. Learn more ›
×
You can save this tab as Personal to edit and correct it or add notes. All changes will be seen only by you. Learn more »
launch autoscroll
font size
0
reset
how to read this tab
guitar tuner
edit
Autoscroll
slow
fast
+/-
esc
set tempo
stop
About this tab version
Two versions in different capo positions. Was this info helpful? Yes No
Vera Blue – Settle

Idea 1
Capo 4 Standard Tuning

           x2         x2           x4
e|-----------|-----------|-----------|
B|-----------|-----------|-----------|
G|-------0-0-|-------0-0-|-------0-0-|
D|----0-3-3--|----0-3-3--|----0-3-3--|
A|-5---------|-3---------|-2---------|
E|-----------|-----------|-----------|


Idea 2
Capo 2 (2nd string down a tone to “A”) 

          x2         x2         x4
e|----------|----------|----------|
A|------0-0-|------0-0-|------0-0-|
G|-----0-0--|-----0-0--|-----0-0--|
D|-2--2-----|----2-----|----2-----|
A|----------|-5--------|-4--------|
E|----------|----------|----------|

(Could possibly tune down 5th string by a semi tone to make 2nd shape easier)
 








            
            
Suggest correction
Creating personal tab
Creating personal tab
You can edit any tab online and save it as your Personal.

You can edit, replace or remove any tab part or add personal notes – all changes will be seen only by you.

Personal tabs can be accessed anytime from any device, even offline.
Learn more »
Give kudos to tab author, rate the tab!
1 2 3 4 5
comments
print report bad tab
guest
You may want to rate the tab now too:
select rating
Wanna post a correction for this tab? Suggest correction