Oops, an error
Loading. Please wait.

In Your Eyes tab

version 3
version 3

Whole song

Interactive

by Verax
408 views 1 this week
no commentswrite comment
1 2 3 4 5
x 4
add to favorites
×
Save as Personal and add changes to this tab that will be seen only by you. Learn more ›
×
You can save this tab as Personal to edit and correct it or add notes. All changes will be seen only by you. Learn more »
launch autoscroll
font size
0
reset
how to read this tab
guitar tuner
edit
Autoscroll
slow
fast
+/-
esc
set tempo
stop
Author
Difficulty
IN YOUR EYES - VERAX

CHEMICALCHEMS TAB EDIT

Credit given to Alexdawsome for the original tab. This is my first tab.
I have edited some parts which I think are easier to play this way and some
non-important octave mistakes have been corrected. I have also simplified the solo in a 
way that novice guitar players can play the song easily. Thank you.


Tuning - Standard (EADGBe)

~ - sustain the note/chord for a couple of seconds
\ - slide down from note/chord


Intro

e||----------------------------------|
B||----------------------------------|
G||---6-6-6---9---6------------------| x3
D||---6-6-6---9---6---7----9--10-----|
A||---4-4-4---7---4---7----9--10-----|
E||-------------------5----7--8------|


e||--------------------------------|
B||--------------------------------|
G||---6-6-6---9---6----------------|
D||---6-6-6---9---6----10~---------|
A||---4-4-4---7---4----10~---------|
E||---------------------8~---------|

Riff 1

e||--9-7-9-----9-7-9-----9-7-9-----9-7-9--6-7-8--|
B||----------------------------------------------|
G||----------------------------------------------|
D||----------------------------------------------|
A||----------------------------------------------|
E||----------------------------------------------|

Verse riff

e||-----------------------------------------------------|
B||-----------------------------------------------------|
G||--6--6--6--6--6--6--6--6--4--4--4--4--4--4--5--5-----| x2
D||-----------------------------------------------------|
A||-----------------------------------------------------|
E||-----------------------------------------------------|

Chorus


e||----------------------------------------------------------|
B||----------------------------------------------------------|
G||--6~----4~-----2~-----4~------6~-----4~-----2~-----4~-----|
D||--6~----4~-----2~-----4~------6~-----4~-----2~-----4~-----|
A||--4~----2~-----0~-----2~------4~-----2~-----0~-----2~-----|
E||----------------------------------------------------------|


Riff 2

e||------------------------------------------------|
B||------------------------------------------------|
G||------------------------------------------------|
D||----------------4--6~----7-6--------------------|
A||--4-7--6~----7----------------6~---6--7--6~-----|
E||------------------------------------------------|

Verse riff

e||-----------------------------------------------------|
B||-----------------------------------------------------|
G||--6--6--6--6--6--6--6--6--4--4--4--4--4--4--5--5-----|  x2
D||-----------------------------------------------------|
A||-----------------------------------------------------|
E||-----------------------------------------------------|










Chorus

e||----------------------------------------------------------|
B||----------------------------------------------------------|
G||--6~----4~-----2~-----4~------6~-----4~-----2~-----4~-----|
D||--6~----4~-----2~-----4~------6~-----4~-----2~-----4~-----|
A||--4~----2~-----0~-----2~------4~-----2~-----0~-----2~-----|
E||----------------------------------------------------------|


Solo 1 (x2)

e||--------------------------------------------------------------------------------|
B||--------------------------------------------------------------------------------|
G||--9-9-6-6--9-9-6-6--9-9-6-6--9-9-6-6--8-8-5-5--8-8-5-5--8-8-5-5--8-8-5-5--------|
D||--------------------------------------------------------------------------------|
A||--------------------------------------------------------------------------------|
E||--------------------------------------------------------------------------------|

e||------------------------------------------------------------------------------|
B||--------------------------------------7-------7--------9-------7--------------|
G||--9-9-6-6--9-9-6-6--9-9-6-6--9-9-6-6------6-6-----6-6------6-6-----6-6--------|
D||------------------------------------------------------------------------------|
A||------------------------------------------------------------------------------|
E||------------------------------------------------------------------------------|

Solo 2

e||----------------------------------------------------------------|
B||----------------------------------------------------------------|
D||---------------------------10-13-11-14~-----11-14-11-13---------|
A||----------------------------------------------------------------|
E||--(little bass lick)--------------------------------------------|

Verse riff

e||-----------------------------------------------------|
B||-----------------------------------------------------|
G||--6--6--6--6--6--6--6--6--4--4--4--4--4--4--5--5-----|
D||-----------------------------------------------------|
A||-----------------------------------------------------|
E||-----------------------------------------------------|

Chorus

e||----------------------------------------------------------|
B||----------------------------------------------------------|
G||--6~----4~-----2~-----4~------6~-----4~-----2~-----4~-----|
D||--6~----4~-----2~-----4~------6~-----4~-----2~-----4~-----|
A||--4~----2~-----0~-----2~------4~-----2~-----0~-----2~-----|
E||----------------------------------------------------------|

Riff 1

e||--9-7-9-----9-7-9-----9-7-9-----9-7-9--6-7-8--|
B||----------------------------------------------|
G||----------------------------------------------| x2
D||----------------------------------------------|
A||----------------------------------------------|
E||----------------------------------------------|

Ending

e||-----------------|
B||-----------------|
G||----6\-----------|
D||----6\-----------|
A||----4\-----------|
E||-----------------|

            
            
Suggest correction
Creating personal tab
Creating personal tab
You can edit any tab online and save it as your Personal.

You can edit, replace or remove any tab part or add personal notes – all changes will be seen only by you.

Personal tabs can be accessed anytime from any device, even offline.
Learn more »
comments
print report bad tab
guest
You may want to rate the tab now too:
select rating
Wanna post a correction for this tab? Suggest correction