Oops, an error
Loading. Please wait.

Como Pez En La Arena tab

86 views 3 this week
no commentswrite comment
1 2 3 4 5
3 more votes to show rating
add to favorites
×
Save as Personal and add changes to this tab that will be seen only by you. Learn more ›
×
You can save this tab as Personal to edit and correct it or add notes. All changes will be seen only by you. Learn more »
launch autoscroll
font size
0
reset
how to read this tab
guitar tuner
edit
Autoscroll
slow
fast
+/-
esc
set tempo
stop
Hola esta es primera tab, espero q les guste.
Alguna sugerencia o correccion escriban a mi correo
darospv08@

Verde 70 - Como pez en la arena
Intro

(1º guitarra)
E ----------------|-------------|-----------------|--------------|
B ----------------|-------------|-----------------|--------------|
G --2-------------|-------------|-----------------|--------------|
D --2--------2h4--|----7----7---|---2-------------|--------------|
A --0---3h4-------|----5----5---|---2--------2h4--|----7----7----|
E ----------------|-------------|---0---3h4-------|----5----5----|

E --------------|--------------------|--------------|----------------|
B --------------|--------------------|--------------|----------------|
G --2-----------|----------------2h4-|--------------|--------------2-|
D --2-------2h4-|--7---7---2h4-------|--2-----------|--------------2-|
A --0--3h4------|--5---5-------------|--2-------2h4-|--7---7--3h4--0-|
E --------------|--------------------|--0--3h4------|--5---5---------|

(2º guitarra)
E ----------------|----------------|----------------|----------------|
B ----------------|----------------|----------------|----------------|
G ----------------|----------------|----------------|----------------|
D ----------------|----x---7---7---|----x---9---9---|----------------|
A ----x---7---7---|----x---5---5---|----x---7---7---|----x---7---7---|
E ----x---5---5---|----------------|----------------|----x---5---5---|

E ----------------|----------------|----------------|----------------|
B ----------------|----------------|----------------|----------------|
G ----------------|----------------|----------------|----------------|
D ----------------|--7--7-7-7-7-7--|--9--9-9-9-9-9--|----------------|
A --7--7-7-7-7-7--|--5--5-5-5-5-5--|--7--7-7-7-7-7--|--7--7-7-7-7-7--|
E --5--5-5-5-5-5--|----------------|----------------|--5--5-5-5-5-5--|

Verso 1.
     A         E       F#m                  C#m
Esta vez te espere como si fuera la primera vez
       D                  A             Bm                E
te espere para decirte te quiero son las 7 y todavía te espero.
      A            E       F#m                      C#m
Y otra vez, te espere como siempre te guarde algún lugar
     D                       A                   Bm
reserve el mejor sitio en el lado más sensible de mi corazón
     E
pero te fuiste.

1º guitarra
E -----------|------------|-----------|-----------------|-----------|
B -----------|------------|-----------|-----------------|-----------|
G --2--x--2--|--4--x--4---|--6--x--6--|-------2-4-4bp2--|-----------|
D --2--x--2--|--2--x--2---|--4--x--4--|--2s4------------|--7--x--7--|
A -----------|------------|-----------|-----------------|--5--x--5--|
E -----------|------------|-----------|-----------------|-----------|

E -------------|-------------|--------5-5-5--------------|
B -------------|-------------|--------5-5-5--7p5---------|
G ---2--x--2---|-------------|---7b--------------7v------|
D ---2--x--2---|---4--x--4---|---------------------------|
A -------------|---2--x--2---|---------------------------|
E -------------|-------------|---------------------------|

E ------------|------------|-----------|-----------------|-----------|
B ------------|------------|-----------|-----------------|-----------|
G ---2--x--2--|---4--x--4--|--6--x--6--|--4bp2-----2s6---|-----------|
D ---2--x--2--|---2--x--2--|--4--x--4--|--------4--------|--7--x--7--|
A ------------|------------|-----------|-----------------|--5--x--5--|
E ------------|------------|-----------|-----------------|-----------|

E -------------|-------------|--------|
B -------------|-------------|--------|
G ---2--x--2---|-------------|--------|
D ---2--x--2---|---4--x--4---|---9v---|
A -------------|---2--x--2---|---7v---|
E -------------|-------------|--------|

2º guitarra (palm muting) (2veces esto)
E --------------|--------------|-------------------|--------------|
B --------------|--------------|-------------------|--------------|
G --------------|--------------|-------------------|--------------|
D --------------|---9-9-9-9-9--|---11-11-11-11-11--|---6-6-6-6-6--|
A ---7-7-7-7-7--|---7-7-7-7-7--|---9--9--9--9--9---|---4-4-4-4-4--|
E ---5-5-5-5-5--|--------------|-------------------|--------------|

E --------------|--------------|--------------|--------------|
B --------------|--------------|--------------|--------------|
G --------------|--------------|--------------|--------------|
D ---7-7-7-7-7--|--------------|--------------|---9-9-9-9-9--|
A ---5-5-5-5-5--|---7-7-7-7-7--|---9-9-9-9-9--|---7-7-7-7-7--|
E --------------|---5-5-5-5-5--|---7-7-7-7-7--|--------------|

Pre - coro.
          Bm                     E
Y ahora estoy como un pez en la arena,
     A                F#m
y si muero no te doy ni pena
          Bm                  E
y ahora estoy como  perro sin presa
       A                        F#m
muero de hambre y solo trago tristeza.

1º guitarra (distorsión)
E ---------------------------|----------------------------| |
B ---------------------------|----------------------------| |
G -------2-4-4bp2---2--------|-----------2---2h4-4bp2-4s6-| |
D ---2s4----------4----------|-------2h4---4--------------| | 1º vez.
A ---------------------------|---2s4----------------------| |
E ---------------------------|----------------------------| |

E --------5-------7------9v--------|  |
B ---------------------------------|  |
G ---3s5-----5s7----7s9------------|  | 2º vez.
D ---------------------------------|  |
A ---------------------------------|  |
E ---------------------------------|  |

2º guitarra (limpia)
E ---x-2-x-2---|---x-0-x-0---|---x-0-x-0---|---x-2-x-2---| |
B ---x-3-x-3---|---x-0-x-0---|---x-2-x-2---|---x-2-x-2---| |
G ---x-2-x-2---|---x-1-x-1---|---x-2-x-2---|---x-2-x-2---| | 2 veces.
D ---x-4-x-4---|---x-2-x-2---|---x-2-x-2---|---x-4-x-4---| |
A ---x-2-x-2---|---x-2-x-2---|---x-0-x-0---|---x-4-x-4---| |
E ---x-2-x-2---|---x-0-x-0---|---x-0-x-0---|---x-2-x-2---| |

Coro.
         D                    E
Porque estoy como Dalí sin pintura
        A             E       F#m
si no estás me quedo con su locura,
         D                         E
porque estoy como Van Gogh sin la oreja
           A        E       F#m      E        D
porque no vienes y solo me dejas y nunca vendrás...

1º guitarra
E -------------|-------------|------------|-------------|------------|
B -------------|-------------|------------|-------------|------------|
G -------------|-------------|------------|-------------|------------|
D --7-7-7-7-7--|--9-9-9-9-9--|-----9--11--|--7-7-7-7-7--|--9-9-9-9-9-|
A --5-5-5-5-5--|--7-7-7-7-7--|--7--7--9---|--5-5-5-5-5--|--7-7-7-7-7-|
E -------------|-------------|--5---------|-------------|------------|

E --------------------------|
B --------------------------|    La segunda guitarra puede rasguear
G --------------------------|    con las notas en limpio?
D -----9--11--9-7v----------|
A --7--7--9---7-5v----------|    La primera se toca con palm muting
E --5-----------------------|


Puente 1.
1º guitarra
E --------5-5-5---------------|
B --------5-5-5--7p5----------|
G ----7b--------------7v------|
D ----------------------------|
A ----------------------------|
E ----------------------------|

Intro.
(1º guitarra)
E ----------------|--------------------|--------------|--------------|
B ----------------|--------------------|--------------|--------------|
G --2-------------|----------------2h4-|--------------|------------2-|
D --2--------2h4--|--7---7---2h4-------|--2-----------|------------2-|
A --0---3h4-------|--5---5-------------|--2-------2h4-|-7--7--3h4--0-|
E ----------------|--------------------|--0--3h4------|-5--5---------|
(2º guitarra)
E ----------------|----------------|----------------|----------------|
B ----------------|----------------|----------------|----------------|
G ----------------|----------------|----------------|----------------|
D ----------------|--7--7-7-7-7-7--|--9--9-9-9-9-9--|----------------|
A --7--7-7-7-7-7--|--5--5-5-5-5-5--|--7--7-7-7-7-7--|--7--7-7-7-7-7--|
E --5--5-5-5-5-5--|----------------|----------------|--5--5-5-5-5-5--|

Verso 2.
      A         E        F#m                    C#m
Y sin más me quede con la lluvia  viendo el atardecer
      D                     A                   Bm
con el tráfico enloquecido de esta ciudad, me quede colgado
      E
una eternidad
       A          E        F#m                   C#m
Y otra vez te espere aun sabiendo que ya no volverás
         D                    A        Bm                     E
y aunque tanta espera me desespera, esperando se me pasan las penas.

1º guitarra
E -------------|-------------|------------|------------|-------------|
B -------------|-------------|------------|------------|-------------|
G ---2--x--2---|---4--x--4---|---6--x--6--|------------|-------------|
D ---2--x--2---|---2--x--2---|---4--x--4--|---2h4------|---7--x--7---|
A -------------|-------------|------------|--------4v--|---5--x--5---|
E -------------|-------------|------------|------------|-------------|

E -------------|-------------|---10-10bp8--------|
B -------------|-------------|-------------10v---|
G ---2--x--2---|-------------|-------------------|
D ---2--x--2---|---4--x--4---|-------------------|
A -------------|---2--x--2---|-------------------|
E -------------|-------------|-------------------|

E ------------|------------|-----------|-----------------|-----------|
B ------------|------------|-----------|-----------------|-----------|
G ---2--x--2--|---4--x--4--|--6--x--6--|---4bp2-----2s6--|-----------|
D ---2--x--2--|---2--x--2--|--4--x--4--|---------4-------|--7--x--7--|
A ------------|------------|-----------|-----------------|--5--x--5--|
E ------------|------------|-----------|-----------------|-----------|

E -------------|-------------|--------|
B -------------|-------------|--------|
G ---2--x--2---|-------------|--------|
D ---2--x--2---|---4--x--4---|---9v---|
A -------------|---2--x--2---|---7v---|
E -------------|-------------|--------|

2º guitarra (palm muting) (2 veces esto)
E --------------|--------------|-------------------|--------------|
B --------------|--------------|-------------------|--------------|
G --------------|--------------|-------------------|--------------|
D --------------|---9-9-9-9-9--|---11-11-11-11-11--|---6-6-6-6-6--|
A ---7-7-7-7-7--|---7-7-7-7-7--|---9--9--9--9--9---|---4-4-4-4-4--|
E ---5-5-5-5-5--|--------------|-------------------|--------------|

E --------------|--------------|--------------|--------------|
B --------------|--------------|--------------|--------------|
G --------------|--------------|--------------|--------------|
D ---7-7-7-7-7--|--------------|--------------|---9-9-9-9-9--|
A ---5-5-5-5-5--|---7-7-7-7-7--|---9-9-9-9-9--|---7-7-7-7-7--|
E --------------|---5-5-5-5-5--|---7-7-7-7-7--|--------------|

Pre - coro.
          Bm                     E
Y ahora estoy como un pez en la arena,
     A                F#m
y si muero no te doy ni pena
          Bm                  E
y ahora estoy como  perro sin presa
       A                        F#m
muero de hambre y solo trago tristeza.

1º guitarra (distorsión)
E --------------------------|----------------------------| |
B --------------------------|----------------------------| |
G -------2-4-4bp2---2-------|-----------2---2h4-4bp2-4s6-| |
D ---2s4----------4---------|-------2h4---4--------------| | 1º vez.
A --------------------------|---2s4----------------------| |
E --------------------------|----------------------------| |

E --------5-------7------9v--------|   |
B ---------------------------------|   |
G ---3s5-----5s7----7s9------------|   | 2º vez.
D ---------------------------------|   |
A ---------------------------------|   |
E ---------------------------------|   |

2º guitarra (limpia)
E ---x-2-x-2---|---x-0-x-0---|---x-0-x-0---|---x-2-x-2---| |
B ---x-3-x-3---|---x-0-x-0---|---x-2-x-2---|---x-2-x-2---| |
G ---x-2-x-2---|---x-1-x-1---|---x-2-x-2---|---x-2-x-2---| | 2 veces.
D ---x-4-x-4---|---x-2-x-2---|---x-2-x-2---|---x-4-x-4---| |
A ---x-2-x-2---|---x-2-x-2---|---x-0-x-0---|---x-4-x-4---| |
E ---x-2-x-2---|---x-0-x-0---|---x-0-x-0---|---x-2-x-2---| |

Coro.
        D                    E
Porque estoy como Dalí sin pintura
        A             E       F#m
si no estás me quedo con su locura,
         D                         E
porque estoy como Van Gogh sin la oreja
           A        E       F#m      E        D
porque no vienes y solo me dejas y nunca vendrás...

1º guitarra
E -------------|-------------|------------|-------------|------------|
B -------------|-------------|------------|-------------|------------|
G -------------|-------------|------------|-------------|------------|
D --7-7-7-7-7--|--9-9-9-9-9--|-----9--11--|--7-7-7-7-7--|--9-9-9-9-9-|
A --5-5-5-5-5--|--7-7-7-7-7--|--7--7--9---|--5-5-5-5-5--|--7-7-7-7-7-|
E -------------|-------------|--5---------|-------------|------------|

E --------------------------|
B --------------------------|   La segunda guitarra puede rasguear
G --------------------------|   con las notas en limpio?
D -----9--11--9-7v----------|
A --7--7--9---7-5v----------|   La primera se toca con palm muting
E --5-----------------------|

Puente 2.
1º guitarra
E --------5-5-5---------------|
B --------5-5-5--7p5----------|
G ----7b--------------7v------|
D ----------------------------|
A ----------------------------|
E ----------------------------|

Solo.
1º guitarra
E ----8-8-----8-8-----8-8-----8-8-8|---------------------------------|
B ----8-8-----8-8-----8-8-----8-8-8|-11p8----8-----------------------|
G 10b-----10b-----10b-----10b------|------10---10p8-10p8----8--------|
D ---------------------------------|---------------------10----------|
A ---------------------------------|-------------------------10-8-7--|
E ---------------------------------|--------------------------------8|

E ----------------------|---------------------|----------------------|
B ----------------------|---------------------|----------------------|
G ----------------------|---------------------|------------8-10bp8---|
D ----------------------|---------------------|------8h10----------8-|
A -7--8--10--10--8--7p0-|-7--8--10--10--8-7p0-|-8-10-----------------|
E ----------------------|---------------------|----------------------|

E --------------------|---------------------------------------------|
B --------------------|-----------en este compas--------------------|
G --------------------|------------pueden improvisar----------------|
D -----7s10--9--8--7--|---------------------------------------------|
A --------------------|---------------------------------------------|
E --------------------|---------------------------------------------|

E ----15-15----15-15----15-15----15-15-------------------|-----------|
B 15b------15b------15b------15b-------15bv-13-15bp13----|-----------|
G ----------------------------------------------------14-|14-13-12-11|
D -------------------------------------------------------|-----------|
A -------------------------------------------------------|-----------|
E -------------------------------------------------------|-----------|

2º guitarra
E -----------------|------------|-------------|-------------------|
B -----------------|------------|-------------|-------------------|
G -----------------|------------|-------------|-------------------|
D -----------------|------------|-------------|-------------------|
A -10-10-10-10-10--|-3-3-3-3-3--|-5-5-5-5-5---|--10-10-10-10-10---|
E -8--8--8--8--8---|-1-1-1-1-1--|-3-3-3-3-3---|--8--8--8--8--8----|

E ---------------|-----------|-----------|----------------|----------|
B ---------------|-----------|-----------|----------------|----------|
G ---------------|-----------|-----------|----------------|----------|
D ---------------|-----------|-----------|----------------|----------|
A -10-10-10-10-10|-3-3-3-3-3-|-5-5-5-5-5-|-10-10-10-10-10-|-10-9-8-7-|
E -8--8--8--8--8-|-1-1-1-1-1-|-3-3-3-3-3-|-8--8--8--8--8--|-8--7-6-5-|

E --------------|--------------|---------------|--------------------|
B --------------|--------------|---------------|--------------------|
G --------------|--------------|---------------|--------------------|
D --------------|---7-7-7-7-7--|---9-9-9-9-9---|--------------------|
A ---7-7-7-7-7--|---5-5-5-5-5--|---7-7-7-7-7---|---7-7-7-7-7--------|
E ---5-5-5-5-5--|--------------|---------------|---5-5-5-5-5--------|

E ------------|------------|-------------|-------------|---------|
B ------------|------------|-------------|-------------|---------|
G ------------|------------|-------------|-------------|---------|
D ------------|--7-7-7-7-7-|--9-9-9-9-9--|-------------|---------|
A --7-7-7-7-7-|--5-5-5-5-5-|--7-7-7-7-7--|--7-7-7-7-7--|--7-6-5--|
E --5-5-5-5-5-|------------|-------------|--5-5-5-5-5--|--5-4-3--|


Pre - coro.
         C#m                    F#m
Y ahora estoy como un pez en la arena,
      E                 A
y si muero no te doy ni pena
         C#m                   F#m
y es que soy como un perro sin presa
        E                       A
muero de hambre y solo trago tristeza.

2º guitarra
E -----4------|-----2------|-----0------|-----0------| |
B -----5------|-----2------|-----0------|-----2------| | Este
G -----4------|-----2------|-----1------|-----2------| | pre - coro
D -----6------|-----4------|-----2------|-----2------| | se repite
A -----4------|-----4------|-----2------|-----0------| | 2 veces
E -----4------|-----2------|-----0------|-----0------| |

Coro.
         F                    G
Porque estoy como Dalí sin pintura
        C             G       Am
si no estás me quedo con su locura,
         F                         G
porque estoy como Van Gogh sin la oreja
           C        G      Am      G         F
porque no vienes y solo me dejas y nunca vendrás...
      G
nunca maaaaaas.......

 1º guitarra
E -------------|-------------|-----------|-------------|------------|
B -------------|-------------|-----------|-------------|------------|
G -------------|-------------|-----------|-------------|------------|
D -------------|-------------|--5--------|-------------|------------|
A --3-3-3-3-3--|--5-5-5-5-5--|--3--5--7--|--3-3-3-3-3--|--5-5-5-5-5-|
E --1-1-1-1-1--|--3-3-3-3-3--|-----3--5--|--1-1-1-1-1--|--3-3-3-3-3-|

E -------------|-----------------------|-----------------------|
B -------------|-----------------------|-----------------------|
G -------------|-----------------------|-----------------------|
D -5-----------|-----------------------|-----------------------|
A -3--5--7--5--|--3-3-3-3-3-3-3-3-3-3--|--5-5--3s5--5-5--3s5---|
E ----3--5--3--|--1-1-1-1-1-1-1-1-1-1--|--3-3--1s3--3-3--1s3---|

La segunda guitarra puede rasguear con las notas en limpio.

Outro.(4 veces)

 2º guitarra
E ----------------|----------------|-----------------|---------------|
B ----------------|----------------|-----------------|---------------|
G -x-5-5----------|------------5h7-|-----------------|-x-5-5-------5-|
D -x-5-5------5h7-|-x-7-7--5h7-----|-x-5-5-----------|-x-5-5-------5-|
A -x-3-3--6h7-----|-x-8-8----------|-x-3-5------5h7--|-x-3-3--6h7--3-|
E ----------------|----------------|-x-3-3--6h7------|---------------|

1º guitarra
En el final la primera guitarra se puede mandar una improvisación
 con la escala de Si mayor.

            
            
Suggest correction
Creating personal tab
Creating personal tab
You can edit any tab online and save it as your Personal.

You can edit, replace or remove any tab part or add personal notes – all changes will be seen only by you.

Personal tabs can be accessed anytime from any device, even offline.
Learn more »
Give kudos to tab author, rate the tab!
1 2 3 4 5
comments
print report bad tab
guest
Wanna post a correction for this tab? Suggest correction