Oops, an error
Loading. Please wait.

Irremediablemente Tarde tab

166 views 3 this week
no commentswrite comment
1 2 3 4 5
3 more votes to show rating
add to favorites
×
Save as Personal and add changes to this tab that will be seen only by you. Learn more ›
×
You can save this tab as Personal to edit and correct it or add notes. All changes will be seen only by you. Learn more »
launch autoscroll
font size
0
reset
how to read this tab
guitar tuner
edit
Autoscroll
slow
fast
+/-
esc
set tempo
stop
Hola, esta es una balada increíble de uno de los grupos más talentosos
del Ecuador Verde 70.

Muy bien, la canción debes tocarla con un capo o puente en el 2traste
la notación esta escrita normalmente es decir mientras esta escrito
que debes tocar al aire la cuerda o 0, en realidad estas tocando el 2
traste.

Con los acordes en la letra es lo mismo; el acorde con el puente sube
dos semitonos. Si tocas un La sin capo pon la posicion del Sol y sube
2 trastes. Pon mucha atención en la tónica de cada nota y te será muy
facil transponerlas. Para el solo Otra guitarra puede tocar sin capo.

Ej. |--2--4--6--7---| con el puente es igual a tocar |--0--2--4--5--|


                            e|---------------2-----------|
                            B|------------------3--------|
Tocar el La Mayor es        G|----------0----------0-----|
igual a tocar con el capo:  D|-------0----------------0--|
                            A|----2----------------------|
                            E|-3-------------------------|
Intro:
Capo 2do traste

e|------------2--3------|--------------2---3----|
B|------------3----3----|--------------3-----3--|
G|------------0---------|--------------0--------|
D|--------0-------------|---------2-------------|
A|-----2----------------|------2----------------|
E|--3-------------------|---0-------------------|
                                                   x2
e|--------------2--3----|--------------2--3-----|
B|--------------3----3--|---------3----3----3---|
G|---------0----0-------|------2-------0--------|
D|------2---------------|---0-------------------|
A|---3------------------|-----------------------|
E|----------------------|-----------------------|


Para la primera y segunda estrofa haces estos arpegios:
Capo 2do traste

  LA
e|---------------2-----------|-----------------2-----------|
B|------------------3--------|--------------------3--------|
G|----------0----------0-----|------------0----------0-----|
D|-------0----------------0--|---------0----------------0--|
A|----2----------------------|------2----------------------|
E|-3-------------------------|---3-------------------------|

  FA#m
e|----------------2-----------|----------------2-----------|
B|-------------------3--------|-------------------3--------|
G|----------0-----------0-----|-----------0----------0-----|
D|-------2-----------------0--|--------2----------------0--|
A|----2-----------------------|-----2----------------------|
E|-0--------------------------|--0-------------------------|

  RE
e|----------------2-----------|----------------2-----------|
B|-------------3-----3--------|-------------3-----3--------|
G|----------0-----------2-----|----------0-----------2-----|
D|-------2-----------------0--|-------2-----------------0--|
A|----3-----------------------|----3-----------------------|
E|----------------------------|----------------------------|

                              En la segunda estrofa existe una
                              variación de este compás y lo tocas
                              como esta indicado.
 SIm7                         |----------------0-----------|
                              |-------------1-----1--------|
                              |----------0-----------0-----|
                              |-------2-----------------2--|
                              |----0-----------------------|
                              |----------------------------|

   MI
e|-------------3--3-----------|------------3---3-----------|
B|----------2--------2--------|---------2---------2--------|
G|-------3--------------3-----|------3---------------3-----|
D|----0--------------------0--|---0---------------------0--|
A|----------------------------|----------------------------|
E|----------------------------|----------------------------|


LA
Irremediablemente tarde
                      FA#m
te darás cuenta de tu error
                        RE
Te juro que no ha sido fácil
                      MI
acostúmbrame a estar sin tu calor

                       LA
Ya tantas cosas han pasado
                          FA#m
que hay mil recuerdos ya sin ti
                        RE
Momentos que se ha escapado
                                SIm7
ya nuestra historia quedo a un lado
                         MI
Me duele tanto que haya sido así


Para las demás estrofas debes rasgar los acordes en las posiciones
ya indicadas. Es un poco complicado poner las posiciones para rasgar
pero debes practicar.

                    LA
Y tan absurdamente tarde
                      FA#m
te acordaras de todo lo que fui
                         RE
Y llorarás lo que he llorado
                        MI
porque para eso estaré tan lejos de aquí

                           LA
Y si ahora te importo muy poco
                        FA#m
yo se que el tiempo lo dirá
                      RE
Sabemos el final del juego
                           SIm7
si hoy el destino te es incierto
                       MI
Se que algún día volverás


CORO:
                        LA
Y entonces tu bufanda gris
                     FA#m
habrá perdido ya su olor
                          RE
Y tus recuerdos se habrán ido
                       MI
envueltos en tu prendedor

                     LA
Y tu figura en esas fotos
                    FA#m
solo será la de un ayer
                          RE
Y aquel te quiero en la arena
                        MI
el agua la echará a perder

                           LA
Y las mil cartas que escribiste
                     FA#m
después serán solo papel
                           RE
Porque mi llanto habrá borrado
                    MI
la tinta de lo que fue ayer...ayer...


SOLO (2:09)
Subes la secuencia dos semitonos a SiM

  SI                               SOL#m
e---------------------------------------------|----------------------|
B--7p4----------------------------------------|----------------------|
G-----6p4----4-----------------4---6/8---6~---|--4px------4/6/(4)----|
D----------6---6---4-------4------------------|--------6-------------|
A---------------------6-----------------------|----------------------|
E---------------------------------------------|----------------------|
  MI                            FA#
e--------------------------------------|-----------------------------|
B--------------------------------------|-----------------------------|
G-----------6b7--7r6---4---4-----------|-----------------------------|
D-----4h6p4--------------6-----4---4~--|-----------------------------|
A--6-----------------------------6-----|---6/:4----2h4p2-------------|
E--------------------------------------|-------------------4~-(2)----|

  Si                     Aquí haces un sweep picking de arriba a abajo
e------------------7~---|---------7-9--9/11~~----9--7--9--7----------|
B---2/4h(5)---7/9-------|--------7-----------------------------------|
G-----------------------|-------x------------------------------------|
D-----------------------|--------------------------------------------|
A-----------------------|--------------------------------------------|
E-----------------------|--------------------------------------------|
  MI                                           FA#
e--7---6h7p6p4------6---4-------------|---------------------|
B---------------7------------(7)(4)---|--7---4--------------|
G-------------------------------------|----------6---/6~----|
D-------------------------------------|---------------------|
A-------------------------------------|---------------------|
E-------------------------------------|---------------------|


                    SI
Y misteriosamente tarde
                 SOl#m
escucharas esta canción
                   MI
Inexplicablemente tarde
                     FA#
yo volveré a colarme en tu corazón

                      SI
Y ya no te importaré poco
                      SOl#m
y en mi ventana estará el sol
                     MI
Entonces estaré tan lejos
                         DO#m
con mi guitarra y algún sueño
                         FA#
Seguramente habré encontrado un nuevo amor

CORO:
                        SI
Y entonces tu bufanda gris
                     SOl#m
habrá perdido ya su olor
                          MI
Y tus recuerdos se habrán ido
                       FA#
envueltos en tu prendedor

                     SI
Y tu figura en esas fotos
                    SOl#m
solo será la de un ayer
                          E
Y aquel te quiero en la arena
                        F#
el agua la echará a perder

                           SI
Y las mil cartas que escribiste
                     SOl#m
después serán solo papel
                           MI
Porque mi llanto habrá borrado
                    FA#
la tinta de lo que fue ayer...ayer...


Simbología:

p =  Pull off
h =  hammer on
/ =  slide ascendente
/:=  slide descendente
()=  nota fantasma
~ =  vibrato
B =  bending
r =  release o soltar el bending

Espero que les haya gustado.....y los más importante aún, que les
sirva....es mi primera transcripción así que cualquier duda
o comentario me pueden escribir: danielojeda90@
Suerte con la canción........practiquen duro; les sera lo más sencillo
del mundo.

            
            
Suggest correction
Creating personal tab
Creating personal tab
You can edit any tab online and save it as your Personal.

You can edit, replace or remove any tab part or add personal notes – all changes will be seen only by you.

Personal tabs can be accessed anytime from any device, even offline.
Learn more »
Give kudos to tab author, rate the tab!
1 2 3 4 5
comments
print report bad tab
guest
Wanna post a correction for this tab? Suggest correction