Oops, an error
Loading. Please wait.

Parodia tab

version 1
version 1

Whole song

130 views 3 this week
no commentswrite comment
1 2 3 4 5
3 more votes to show rating
add to favorites
×
Save as Personal and add changes to this tab that will be seen only by you. Learn more ›
×
You can save this tab as Personal to edit and correct it or add notes. All changes will be seen only by you. Learn more »
launch autoscroll
font size
0
reset
how to read this tab
guitar tuner
edit
Autoscroll
slow
fast
+/-
esc
set tempo
stop
Intro:

  Riff 1

  A               A
e---------------|----------------|
B---------------|----------------|
G---------------|----------------|
D-2-------xxx---|-2-----------2--| (x4)
A-0-3-0---xxx---|-0-3-0-------0--|
E-------5-------|-------5-0-3----|


Riff 2
  A               A                E                E
e---------------|----------------|----------------|----------------|
B---------------|----------------|----------------|----------------|
G---------------|----------------|----------------|----------------|
D-2-------xxx---|-2-----------2--|----------------|----------------|
A-0-3-0---xxx---|-0-3-0-------0--|-2-------xxx----|-2-------xxx----|
E-------5-------|-------5-0-3----|-0-5-0-3-xxx----|-0-5-0-3-xxx----|

 D                D                A                A
----------------|----------------|----------------|----------------|
----------------|----------------|----------------|----------------|
-2-------xxx----|-2--------------|----------------|----------------|
-0-3-0---xxx----|-0-3-0---------2|--2-------xxx---|-2-----------2--|
-------5--------|-------5-0-3---0|--0-3-0---xxx---|-0-3-0-------0--|
----------------|----------------|--------5-------|-------5-0-3----|


Riff 2 ---]  P.M
A
Éste es el final,
de ésta carrera tan absurda,
E
ésta parodia de amor,
ésta locura.

D
No me estoy dando por vencido
A
lo único que digo amor,
es que la vida,
el tiempo,
la distancia nos desubico.

Riff 2 -----] Sin P.M.

A
Ésta es la segunda vuelta,
de una extraña bienvenida,
E
y sabes sin hallar
LA despedida.

D
No te lo tomes tan a pecho,
más que palabras son hechos,
A
los que nos llevaron
a este lecho de dolor

F5
Sin amor,
G5
sin calor,
Riff 1 (A)
sin afecto.
F5         G5
Y el dolor es más grande,
Riff 1 (A)
ésta vez.

        C5
No eres tú,
       G5
no soy yo,
        Riff 1
pasa el tiempo,
      F5            G5
y lo nuestro no fue más
                 Riff 1 (A)
que una parodia de amor.


A
Si el amor es tan divino,
es un milagro
E
y no es dañino,
entonces creo que ya lo perdimos.

D
Si notas algo de rencor,
no es nada contra ti amor,
A
es sólo que perdí la fe,
perdí toda ilusión.

Riff 2 -----] Sin P.M.

A
Días buenos, días malos
y al final son más los malos
E
ratos que tu y yo nos regalamos,
D
sería tan necesario
arrancarle éste tiempo al calendario
A
y mirarlo después
para encontrarle solución


         F5
A éste amor,
      G5
sin calor,
      Riff 1(A)
sin afecto.
       F5             G5
Y el dolor es más grande,
     Riff 1(A)
ésta vez.

        C5
No eres tú,
       G5
no soy yo,
      Riff 1 (A)
pasa el tiempo,
      F5            G5
y lo nuestro no fue más
          A
que una parodia de amor.

A
Somos victimas perdidas
en las redes del destino
E
y ahora no nos queda otro camino.

D
Hicimos lo que pudimos,
hay verdades que no vimos,
A
éste brindis va por ti,
por recordarnos lo que fuimos.

  F5
Amor,
         G5
ya sin calor,
   Riff 1 (A)
sin afecto.

       F5           G5
Y el dolor es más grande,
 Riff 1 (A)
ésta vez.

                C5
No, no, no eres tú,
       G5
no soy yo,
      Riff 1(A)
pasa el tiempo,
        F5          G5
y lo nuestro no fue más
       F5           G5
y lo nuestro no fue más
      F5            G5
y lo nuestro no fue más
     Riff 1 (A)
que una parodia de amor.


Outro:

A5 x 4

            
            
Suggest correction
Creating personal tab
Creating personal tab
You can edit any tab online and save it as your Personal.

You can edit, replace or remove any tab part or add personal notes – all changes will be seen only by you.

Personal tabs can be accessed anytime from any device, even offline.
Learn more »
Give kudos to tab author, rate the tab!
1 2 3 4 5
comments
print report bad tab
guest
Wanna post a correction for this tab? Suggest correction