Oops, an error
Loading. Please wait.

Parodia tab

version 2
version 2

Whole song

80 views 1 this week
no commentswrite comment
1 2 3 4 5
3 more votes to show rating
add to favorites
×
Save as Personal and add changes to this tab that will be seen only by you. Learn more ›
×
You can save this tab as Personal to edit and correct it or add notes. All changes will be seen only by you. Learn more »
launch autoscroll
font size
0
reset
how to read this tab
guitar tuner
edit
Autoscroll
slow
fast
+/-
esc
set tempo
stop
Hola  a todos esta es una cancion que saque al oido
 cualquier error envienlo al E-mail
Disfruten

A=armonico
Relase=r

Nota la cuarta y quinta cuerda se tocan como rasgueo...


e|-----------------------------------
B|-----------------------------------
G|-----------------------------------
D|------2--2----0------2--2--------2-
A|------0--0----3r-----0--0--------0-
E|-----------------------------------x8


Y este es el final de esta carrera tan absurda esta parodia de amor esta locura

e|-------------------------------------------------------------------------
B|-------------------------------------------------------------------------
G|-------------------------------------------------------------------------
D|---2--2---0-----2A-------------------------------------------------------
A|---0--0---3r----0A-------------0---0---3---0---0----0---0---0---3---0---0
E|-------------------------------------------------------------------------


No me estoy dando por vencido lo único que digo amor es que la vida el tiempo

e|------------------------------------------------------------------------
B|------------------------------------------------------------------------
G|------------------------------------------------------------------------
D|0---0--3--0--0-----------------0--0--0--3--0--0-------------------------
A|------------------------------------------------------------------------
E|-----------------0--0--3--0--0-------------------0--0--0--3--0--0-------


la distancia nos desubico.

e|-----------------------------------
B|-----------------------------------
G|-----------------------------------
D|0--0--0--3--0--0-------------------
A|-----------------0--0--0--3--0--0--
E|-----------------------------------


Ésta es la segunda vuelta, de una extraña bienvenida,

e|-----------------------------------
B|-----------------------------------
G|-----------------------------------
D|------2--2----0------2--2--------2-
A|------0--0----3r-----0--0--------0-
E|-----------------------------------x2

Se avecina ya la despedida No telotomes tan a pecho,más que palabras son hechos

e|----------------------------------------------------------------
B|----------------------------------------------------------------
G|-------2--2----0------2--2--------2-----------------------------
D|-------0--0----3r-----0--0--------0-----------------------------
A|-----------------------------------2--2----0------2--2--------2-
E|-----------------------------------0--0----3r-----0--0--------0-

los que nos llevaron a este lecho de dolor

e|-----------------------------------
B|-----------------------------------
G|-----------------------------------
D|------2--2----0------2--2--------2-
A|------0--0----3r-----0--0--------0-
E|-----------------------------------x2


Sin amor,

e|---------
B|---------
G|---------
D|---3-----
A|---3-----
E|---1-----

sin calor,

e|---------------
B|---------------
G|---------------
D|---5-----6-----
A|---5-----6-----
E|---3-----4-----

sin afecto

e|-----------------------------------
B|-----------------------------------
G|-----------------------------------
D|------2--2----0------2--2--------2-
A|------0--0----3r-----0--0--------0-
E|-----------------------------------x2

Y el dolor

e|---------
B|---------
G|---------
D|---3-----
A|---3-----
E|---1-----

es más grande,

e|---------
B|---------
G|---------
D|---5-----
A|---5-----
E|---3-----

ésta vez.

e|-----------------------------------
B|-----------------------------------
G|-----------------------------------
D|------2--2----0------2--2--------2-
A|------0--0----3r-----0--0--------0-
E|-----------------------------------x2

No eres tú,

e|---------
B|---------
G|----5----
D|----3----
A|----3----
E|---------

No soy yo

e|---------
B|---------
G|---------
D|---5-----
A|---5-----
E|---3-----

Pasa el tiempo

e|-----------------------------------
B|-----------------------------------
G|-----------------------------------
D|------2--2----0------2--2--------2-
A|------0--0----3r-----0--0--------0-
E|-----------------------------------x2

Y lo nuestro no fue mas

e|-------------------
B|-------------------
G|-------------------
D|---3-----5--6-----
A|---3-----5--6-----
E|---1-----3--4-----

Que una parodia de amor

                    e|-----------------------------------
                    B|-----------------------------------
                    G|-----------------------------------
                    D|------2--2----0------2--2--------2-
                    A|------0--0----3r-----0--0--------0-
                    E|-----------------------------------x4
e|-----
B|-----
G|-----
D|--2--
A|--0--
E|-----

(AQUI NO SE TOCA NADA)
Si el amor es tan divino,
es un milagro
y no es dañino,
entonces creo que ya lo perdimos.

Si notas algo de rencor,
no es nada contra ti amor,
es sólo que perdí la fe,
perdí toda ilusión.

Buenos buenos dias malos que al final son malos malos

e|-----------------------------------
B|-----------------------------------
G|-----------------------------------
D|------2--2----0------2--2--------2-
A|------0--0----3r-----0--0--------0-
E|-----------------------------------x2


rato q tu y yo nos regalamos sería tan necesari arrancarle éste tiempo
al calendario

e|-------------------------------------------------------------------
B|-------------------------------------------------------------------
G|--1----------------------2--2--0---2--2--2-------------------------
D|--2--2--2---0---2--2-2---0--0--3r--0--0--0-------------------------
A|--2--0--0---3r--0--0-0---------------------2--2--0---2--2--2-------
E|-------------------------------------------0--0--3r--0--0--0-------
lo de arriba hasta aqui |
se toca x2

y mirarlo después para encontrarle solución

e|-----------------------------------
B|-----------------------------------
G|-----------------------------------
D|------2--2----0------2--2--------2-
A|------0--0----3r-----0--0--------0-
E|-----------------------------------x2

A éste amor,

e|---------
B|---------
G|---------
D|---3-----
A|---3-----
E|---1-----

sin calor,

e|---------------
B|---------------
G|---------------
D|---5-----6-----
A|---5-----6-----
E|---3-----4-----

sin afecto

e|-----------------------------------
B|-----------------------------------
G|-----------------------------------
D|------2--2----0------2--2--------2-
A|------0--0----3r-----0--0--------0-
E|-----------------------------------x2

Y el dolor

e|---------
B|---------
G|---------
D|---3-----
A|---3-----
E|---1-----

es más grande,

e|---------
B|---------
G|---------
D|---5-----
A|---5-----
E|---3-----

ésta vez.

e|-----------------------------------
B|-----------------------------------
G|-----------------------------------
D|------2--2----0------2--2--------2-
A|------0--0----3r-----0--0--------0-
E|-----------------------------------x2

No eres tú,

e|---------
B|---------
G|----5----
D|----3----
A|----3----
E|---------

No soy yo

e|---------
B|---------
G|---------
D|---5-----
A|---5-----
E|---3-----

Pasa el tiempo

e|-----------------------------------
B|-----------------------------------
G|-----------------------------------
D|------2--2----0------2--2--------2-
A|------0--0----3r-----0--0--------0-
E|-----------------------------------x2

Y lo nuestro no fue mas

e|-------------------
B|-------------------
G|-------------------
D|---3-----5--6-----
A|---3-----5--6-----
E|---1-----3--4-----

Que una parodia de amor

                    e|----------
                    B|----------
                    G|-----7----
                    D|-----7----
                    A|-----5----
                    E|---------- (dejenlo sonar, dura todo el solo)

 e|----------
 B|----------
 G|----------
 D|-----7----
 A|-----7----
 E|-----5----x3

(No se hace nada)

Somos victimas perdidas
en las redes del destino
y ahora no nos queda otro camino.

Hicimos lo que pudimos,
hay verdades que no vimos,
éste brindis va por ti,
por recordarnos lo que fuimos.

amor,

e|---------
B|---------
G|---------
D|---3-----
A|---3-----
E|---1-----

ya sin calor,

e|---------------
B|---------------
G|---------------
D|---5-----6-----
A|---5-----6-----
E|---3-----4-----

sin afecto

e|-----------------------------------
B|-----------------------------------
G|-----------------------------------
D|------2--2----0------2--2--------2-
A|------0--0----3r-----0--0--------0-
E|-----------------------------------x2

Y el dolor

e|---------
B|---------
G|---------
D|---3-----
A|---3-----
E|---1-----

es más grande,

e|---------
B|---------
G|---------
D|---5-----
A|---5-----
E|---3-----

ésta vez.

e|-----------------------------------
B|-----------------------------------
G|-----------------------------------
D|------2--2----0------2--2--------2-
A|------0--0----3r-----0--0--------0-
E|-----------------------------------x2

No no no no eres tú,

e|---------
B|---------
G|----5----
D|----3----
A|----3----
E|---------

No soy yo

e|---------
B|---------
G|---------
D|---5-----
A|---5-----
E|---3-----

Pasa el tiempo

e|-----------------------------------
B|-----------------------------------
G|-----------------------------------
D|------2--2----0------2--2--------2-
A|------0--0----3r-----0--0--------0-
E|-----------------------------------x2

Y lo nuestro no fue mas
                        x3
e|--------
B|--------
G|--------
D|--3--0--
A|--3--0--
E|--1--3--X3

que una parodia de amor

e|------
B|--3---
G|--2---
D|--2---
A|------
E|------

 e|----------
 B|----------
 G|----------
 D|-----7----
 A|-----7----
 E|-----5----x3


Y eso es todo :D

            
            
Suggest correction
Creating personal tab
Creating personal tab
You can edit any tab online and save it as your Personal.

You can edit, replace or remove any tab part or add personal notes – all changes will be seen only by you.

Personal tabs can be accessed anytime from any device, even offline.
Learn more »
Give kudos to tab author, rate the tab!
1 2 3 4 5
comments
print report bad tab
guest
Wanna post a correction for this tab? Suggest correction