Oops, an error
Loading. Please wait.

Un Minuto tab

version 1
version 1

Whole song

46 views 1 this week
no commentswrite comment
1 2 3 4 5
3 more votes to show rating
add to favorites
×
Save as Personal and add changes to this tab that will be seen only by you. Learn more ›
×
You can save this tab as Personal to edit and correct it or add notes. All changes will be seen only by you. Learn more »
launch autoscroll
font size
0
reset
how to read this tab
guitar tuner
edit
Autoscroll
slow
fast
+/-
esc
set tempo
stop
           (¨~+*,.__un minuto__.,*+~¨)
hola!! para mi esta es una de mlas mejores canciones de verde 70
y como no encontre la ablatura la saque yo... 
disfrutenla


x: tap (pegan las cuerdas para q dejen de sonar con la parte q se hace palm mute)
~: dejar sonando

intro:

e---------------------------------------
B---------------------------------------
G-3333--333-----------------------------
D-3333--333-333-5555--555-333-----------
A-1111--111-333-5555--555-333-----------
E-----------111-3333--333-111-----------

e----X----------------x----------------
B----X----------------x----------------
G-33-X-3----3p1-------x----------------
D-33-X-3--3-----3--33-x-3--555---------
A-11-X-1-----------33-x-3--555---------
E----X-------------11-x-1--333---------

e----X----------------x----------------
B----X----------------x----------------
G-33-X-3----3p1-------x----------------
D-33-X-3--3-----3--33-x-5--5-5p3-------
A-11-X-1-----------33-x-5--------5-----
E----X-------------11-x-3--------------

e----X---------------------------
B----X---------------------------
G-33-X-3----3p1------------------
D-33-X-3--3-----3----5~~---------
A-11-X-1-------------5~~---------
E----X---------------3~~---------

verso: x2 (2 veces)

e-------0---------0---------0--------0-----0-----
B---0---------0---------0----------0-----0-------
G-----0---------0---------0------------0---------
D-0---------0---------0----------0---------------
A------------------------------------------------
E------------------------------------------------

se que esta noche....
e----X----------------x------------------x-----------------------
B----X----------------x------------------x-----------------------
G-33-X-3----3p1-------x------------------x-----------------------
D-33-X-3--3-----3--33-x-3--5-5p3------55-x-5--5-5p3----77-99-----
A-11-X-1-----------33-x-3--------5----55-x-5--------5--77-99-----
E----X-------------11-x-1-------------33-x-3-----------55-77-----

e----X----------------x------------------x-----------------------
B----X----------------x------------------x-----------------------
G-33-X-3----3p1-------x------------------x-----------------------
D-33-X-3--3-----3--33-x-3--5-5p3------55-x-5--5-5p3----66-77-----
A-11-X-1-----------33-x-3--------5----55-x-5--------5--66-77-----
E----X-------------11-x-1-------------33-x-3-----------44-55-----

Coro:
e---------------------------------
B---------------------------------
G-55555555--77777777-----777-999--
D-55555555--77777777-555-777-999--
A-33333333--55555555-555-555-777--
E--------------------333----------

cuando termina el coro
e-----------
B-----------
G-444-8-----
D-444-8-----
A-222-6-----
E-----------

e----X----------------x------------------x----------------x-----------
B----X----------------x------------------x----------------x-----------
G-33-X-3----3p1-------x------------------x----------------x-4-888-----
D-33-X-3--3-----3--33-x-3--5-5p3------55-x-5--5-5p3----66-x-4-888-----
A-11-X-1-----------33-x-3--------5----55-x-5--------5--66-x-2-666-----
E----X-------------11-x-1-------------33-x-3-----------44-x-----------

e----X----------------x------------------x------------------
B----X----------------x------------------x------------------
G-33-X-3----3p1-------x------------------x-------------3----
D-33-X-3--3-----3--33-x-3--5-5p3------55-x-5--5-5p3----3----
A-11-X-1-----------33-x-3--------5----55-x-5--------5--1----
E----X-------------11-x-1-------------33-x-3----------------

(RELOJ)

verso:1 vez despues esto

e----X----------------x------------------x-----------------------
B----X----------------x------------------x-----------------------
G-33-X-3----3p1-------x------------------x-----------------------
D-33-X-3--3-----3--33-x-3--5-5p3------55-x-5--5-5p3----66-77-----
A-11-X-1-----------33-x-3--------5----55-x-5--------5--66-77-----
E----X-------------11-x-1-------------33-x-3-----------44-55-----

Coro:
e---------------------------------
B---------------------------------
G-55555555--77777777-----777-999--
D-55555555--77777777-555-777-999--
A-33333333--55555555-555-555-777--
E--------------------333----------          


solo:(es lo unico que falta)


SOL          RE         DO
  Uhhh..... uh uh uh uhhh... (x4)

            
            
Suggest correction
Creating personal tab
Creating personal tab
You can edit any tab online and save it as your Personal.

You can edit, replace or remove any tab part or add personal notes – all changes will be seen only by you.

Personal tabs can be accessed anytime from any device, even offline.
Learn more »
Give kudos to tab author, rate the tab!
1 2 3 4 5
comments
print report bad tab
guest
Wanna post a correction for this tab? Suggest correction