Oops, an error
Loading. Please wait.

Caleido tab

by Verdena
277 views 1 this week
no commentswrite comment
1 2 3 4 5
3 more votes to show rating
add to favorites
×
Save as Personal and add changes to this tab that will be seen only by you. Learn more ›
×
You can save this tab as Personal to edit and correct it or add notes. All changes will be seen only by you. Learn more »
launch autoscroll
font size
0
reset
how to read this tab
guitar tuner
edit
Autoscroll
slow
fast
+/-
esc
set tempo
stop
Author
Song: Caleido
Artit: Verdena
Tabbed by: Galva94



Main riff 7x
e|-----------------------------|-----------------------------|
B|-----------------------------|-----------------------------|
G|-----------------------------|-----------------------------|
D|-----------------------------|-----------------------------|
A|-----------------------------|-----------------5-7-7-7-7-7\|
E|-577-7-7-755-555-5-7-7-7-7-4-|-577-777-7-5-5-5-------------|
   Conopa                       Il mio cuore è una giunga e dici che
   tu ne sai                    in un mare che affonda non affogherò

   Odio sai                     Qui ci vuole una giunga o affogherò
   tu ne hai                    fino al cuore è un giunga non dirmi che
  
1x
e|-----------------------------|-----------------------------|
B|-----------------------------|-----------------------------|
G|-----------------------------|-----------------------7-7-7-|
D|-----------------------------|-7-9-9---7---6-7-9-----------|
A|-----------------------------|-----------------------------|
E|-577-7-7-755-555-5-7-7-7-7-4-|-----------------------------|
   uh yeh uh yeh
4x
e|-----------------------------|-----------------------------|
B|-----------------------------|-----------------------------|
G|-7---------------------------|-----------------------7-7-7-|
D|---9-9---7---6-7-9-----------|-7-9-9---7---6-7-9-----------|
A|-----------------------------|-----------------------------|
E|-----------------------------|-----------------------------|

Main riff again (4x)

    Caleido 
    ma hey faccio fuori gli dei
    mai lo potrei
    ma hey faccio fuori gli dei
    mai lo vorrai
    ma hey faccio fuori gli dei
    forse non converrai
    ma hey faccio fuori gli dei

Break 4x
e|-----------------------------|-----------------------------|
B|-----------------------------|-----------------------------|
G|-----------------------------|-----------------------------|
D|-----------------------------|-----------------------------|
A|-----------------------------|-----------------------------|
E|-7-7-7-\\--------------------|-----------------------------|

tu eri qua non ci stare
dire di sì non ci vuole
percorrerò le tue scale
migliorerò che ci vuole

Main riff again (8x)

percorrerò le tue scale
ohhhh io dubbi non ho
ma mi sospendevi in giù
io mille paranoie
ma mi sospendevi in giù
la mia riparazione
ma mi sospendevi in giù
curavi le parole
yehyeheyheyeh

e|-----------------------------|-----------------------------|
B|-----------------------------|-----------------------------|
G|-----------------------------|-----------------------7-7-7-|
D|-----------------------7-7-7-|-7h9-9-7-6-7-6~--------------|
A|-7~~---------7-9-9-----------|-----------------------------|
E|-----------------------------|-----------------------------|

e|-----------------------------|-----------------------------|
B|-----------------------------|-----------------------------|
G|-7---------------------------|-9p7---9p7-9p7--7-9-11~------|
D|---7-6---7-6-7-9-------------|----9---------9--------------|
A|-----------------------------|-----------------------------|
E|-----------------------------|-----------------------------|

e|-----------------------------|-----------------------------|
B|-----------------------------|-----------------------------|
G|------------6------6---7---9-|-6--9--11--14--11--15--16--18|
D|-6---7---9-----7-------------|-----------------------------|
A|-----------------------------|-----------------------------|
E|-----------------------------|-----------------------------|

Main riff altered 
 4x
e|-----------------------------|-----------------------------|
B|-----------------------------|-----------------------------|
G|-----------------------------|-----------------------------|
D|-----------------------------|-----------------------------|
A|-----------------------------|-----------------5-7-7-7-7-7\|
E|-5-7-7-7-7-5-5-5-5-7-7-7-7-4-|-5-7-7-7-7-5-5-5-------------|
   I tuoi ora asciugano i miei
   ma mi sospendevi in giù
   io mille apranoie
   ma mi sospendevi in giù
   qualificavi il cuore
   ma mi sospendevi in giù
   dicevi che ci vuole
   ma mi sospendevi in giù

 1x
e|-----------------------------|-clean-----------------------|
B|-----------------------------|-12--------------------------|
G|-----------------------------|-----------------------------|
D|-----------------------------|-----------------------------|
A|-----------------------------|-----------------------------|
E|-5-7-7-7-7-5-5-5-5-----------|-----------------------------|
   sapevi come fare
   ma mi sospendevi in giù
   la mia riparazione
   ma mi sospendevi in 


Solo
e|--------------------------|-------------------------|
B|-4x-----------------------|-2x----------------------|
G|--------------------------|-------------------------|
D|--------------------------|-------------------------|
A|--------------------------|-------------------------|
E|-10-12-12-12-10-12-12-12--|-10-10-10-10-10-10-10-10-|
  giù!
e|---------------------------------|--------------------------|
B|-1x------------------------------|-4x-----------------------|
G|---------------------------------|--------------------------|
D|---------------------------------|--------------------------|
A|---------------------------------|--------------------------|
E|-9-9-9-9-9-9-9-9-8-8-8-8-8-8-8-8-|-10-12-12-12-10-12-12-12--|
                                     magnificooo!
e|-----------------------------|-----------------------------|
B|-2x--------------------------|-----------------------------|
G|-----------------------------|-----------------------------|
D|-----------------------------|-6-6-6-6-6-6-6-6-5-5-5-5-4-4~|
A|-----------------------------|-----------------------------|
E|-10-10-10-10-10-10-10-10-----|-----------------------------|

 2x
e|-----------------------------|-----------------------------|
B|-----------------------------|-----------------------------|
G|-----------------------------|-----------------------------|
D|-----------------------------|-6-6-6-6-6-6-6-6-5-5-5-5-4-4~|
A|-----------------------------|-----------------------------|
E|-12-12-12-12-12-12-12-12-----|-----------------------------|


e|-(keyboard)---------------|
B|-12----10----14----17-----|
G|--------------------------|
D|--------------------------|
A|--(guitar)----------------|
E|-12-12-12-12-12-12-12-12--|

Main riff 3x

-Nessuno di noi!!
-Ma lo po
-Nessuno di noi

2 guitar (I tabbed only the first)
e|------------------------9-10-9-7-|-----------------------------|
B|-------12-10------10-12----------|-9h10p9~------9h10p9\7--7--7-|
G|...9-11--------------------------|-----------------------------|
D|---------------------------------|-----------------------------|
A|---------------------------------|-----------------------------|
E|---------------------------------|-----------------------------|

e|-10p7--9p7--10p7--9p7--10p7--9p7-10p7---12p9--12p9--12p9--12p9--12p9--12p9-|
B|---------------------------------------------------------------------------|
G|---------------------------------------------------------------------------|
D|---------------------------------------------------------------------------|
A|---------------------------------------------------------------------------|
E|---------------------------------------------------------------------------|

e|-9/10~--10-9-----------------|
B|-------------12-9----etc-----|
G|-----------------------------|
D|-----------------------------|
A|-----------------------------|
E|-----------------------------|

            
            
Suggest correction
Creating personal tab
Creating personal tab
You can edit any tab online and save it as your Personal.

You can edit, replace or remove any tab part or add personal notes – all changes will be seen only by you.

Personal tabs can be accessed anytime from any device, even offline.
Learn more »
Give kudos to tab author, rate the tab!
1 2 3 4 5
comments
print report bad tab
guest
You may want to rate the tab now too:
select rating
Wanna post a correction for this tab? Suggest correction