Oops, an error
Loading. Please wait.

Don Calisto Tab

6,420 views 9 this week
1 commentread comment
1 2 3 4 5
accurate
x 3
add to favorites
launch autoscroll
font size
0
reset
how to read this tab
guitar tuner
Autoscroll
slow
fast
+/-
esc
set tempo
stop
Help us to improve Ultimate-Guitar.com Take our survey!
×
Difficulty
novice
REQUIEM - DON CALISTO (TRACK 2)
  tabbed by bizkit (mauryon@tiscali.it)

Accordatura standard (EBGDAE)

Verso:

E|-----------------------------------------------------|
B|-----------------------------------------------------|
G|-----------------------------------------------------|
D|22---------6------22---------5-----------------------|
A|22---------6------22---------5-----------------------|
E|00---5/7---4------00---5/7---3-----------------------|

è il main riff di tutta la canzone.

Assolo:

E|-----------7--------------9-------|   |--9/10-10-10-10-10-10-10|
B|-----9^10-----------9^10----------|   |------------------------|
G|9--------------9------------------|X4 |------------------------|
D|----------------------------------|   |------------------------|
A|----------------------------------|   |------------------------|
E|----------------------------------|   |------------------------|

Suggest correction
Give kudos to tab author, rate the tab!
1 2 3 4 5
comments
print report bad tab
1 comment total.
0 reply
Fab10 10 wrote on January 7 2009, 09:46 am

il riff è giusto ma io la suono con l'intermezzo che sarebbe:

E|---------------------------------------------------|
B|---------------------------------------------------|
G|---------------------------------------------------|
D|222222--6-6-6----222222--5-5-5---------------------|
A|222222--6-6-6----222222--5-5-5---------------------|
E|000000--4-4-4----000000--3-3-3---------------------|

guest
You may want to rate the tab now too:
select rating
Wanna post a correction for this tab? Suggest correction