Oops, an error
Loading. Please wait.

Linfinita Gioia Di Henry Bahus Tab

1,220 views 3 this week
no commentswrite comment
1 2 3 4 5
please rate
add to favorites
launch autoscroll
font size
0
reset
how to read this tab
guitar tuner
Autoscroll
slow
fast
+/-
esc
set tempo
stop
Help us to improve Ultimate-Guitar.com Take our survey!
×
Author
VERDENA

L'INFINITA GIOIA DI HENRY BAHUS

tabbed by dan (yellowledbetter_69@hotmail.co.uk)

TUNE DOWN 1/2 STEP

|------0---0--------0--------------------------------------|
|------0---0--------0--------------------------------------|
|------0---0--------0-------------10-10-10-10-10-10-10-10--|
|------7---7-10-10-10-10-10-10-10-10-10-10-10--9--9--9--9--|
|--7-7-7-7-7-10-10-10-10-10-10-10--8--8--8--8--8--8--8--8--|
|--5-5-5-5-5--8--8--8--8\-7--7--7--------------------------|
intro/ verse   play loosely    (multiple overdubs during verse)

|---------------------------------------------------------------------------|
|---------------------------------------------------------------------------|
|-------------------------------------10-10-10--12--12--12--14--14--14--14--|
|--7-7-7-7-7-7-7-10-10-10-10-10-10-10---------------------------------------|
|--7-7-7-7-7-7-7-10-10-10-10-10-10-10--8--8--8--10--10--10--12--12--12--12--|
|--5-5-5-5-5-5-5--8--8--8--8--8--8--8---------------------------------------|
break

repeat verse part, end with slide down bottom string

|--5-5-5-5-5-5-5---5-5-5-5-5-5-5--|
|--5-5-5-5-5-6-6---5-5-5-5-5-6-6--|
|--5-5-5-5-5-5-5---5-5-5-5-5-5-5--|
|---------------------------------|
|---------------------------------|
|---------------------------------|
chorus   (in dentro me..)

|----------------------------------------------------------------------------|
|----------------------------------------------------------------------------|
|-----------0---------------------------10-10-10-10-10-----------------------|
|-7-7-7-7---0--7-7----10\9-9-9-10\9-9-9-10-10-10-10-10-9b10---10\9-9-10\9-9--|
|-7-7-7-7---0--7-7----10\9-9-9-10\9-9-9--8--8--8--8--8--------10\9-9-10\9-9--|
|-5-5-5-5-/\---5-5-/\--8\7-7-7--8\7-7-7---------------------/\-8\7-7--8\7-7--|
post chorus/ outro

|----------------------------------------------------------------------------|
|----------------------------------------------------------------------------|
|----------------------------------------------------------------------------|
|-9h10vvvv--10/12\9-9-9\7-7\5-5-5/7vvvv--9-9h10-12/14--9\7-7\5-5-5/7-7vvv-7\-|
|----------------------------------------------------------------------------|
|----------------------------------------------------------------------------|
solo   w/ phase effect

|-----------------------------------------------------------------------------|
|-----------------------------------13-12-------------------------------------|
|-------12-14vvv--12h14p12----------------14-12-14-14-12h14p12----------------|
|-12h14--------------------14-12-14---------------------------14-12-14-14b16--|
|-----------------------------------------------------------------------------|
|-----------------------------------------------------------------------------|
solo cont     phase effect

|------------------------------------------|
|------------------------13-12--15-13-12\--|
|-----12-14-12-----------------------------|
|--14----------14-12-14--------------------|
|------------------------------------------|
|------------------------------------------|
solo cont


note: *=play 6 times     £=play 8 times     $=play 4 times
|------------------------------------------|
|--------------------------£---*---$-------|
|-------*---£---*---£---*--11--12--14------|
|--/14--9--10---9--12--14------------------|
|------------------------------------------|
|------------------------------------------|
solo cont

|----------------|
|----------------|
|----------------|
|--10--9-10--9---|
|--10--9-10--9---|
|---8--7--8--7---|
into verse 3

|------0---0--------0-------------------------------------------------------|
|------0---0--------0-------------x-x-x-x-x-x-x-x---------------------------|
|------0---0--------0----10-10-10-x-x-x-x-x-x-x-x---------------------------|
|--7-7-7-7-7-10-10-10-10-10-10-10-x-x-x-x-x-x-x-x--9b10-----10\9-9-9-10\9-9-|
|--7-7-7-7-7-10-10-10-10--8--8--8-x-x-x-x-x-x-x-x-----------10\9-9-9-10\9-9-|
|--5-5-5-5-5--8--8--8--8--------------------------------/-\--8\7-7-7--8\7-7-|
verse 3   (only first time, play other part for rest of it)

rest is just repeats.

that's everything.
Suggest correction
Give kudos to tab author, rate the tab!
1 2 3 4 5
comments
print report bad tab
guest
You may want to rate the tab now too:
select rating
Please do not post tabs as comments. Select "correction" instead!