Oops, an error
Loading. Please wait.

Razzi Arpia Inferno E Fiamme Tab

version 3
version 3

Whole song

Interactive

1,405 views 3 this week
no commentswrite comment
1 2 3 4 5
3 more votes to show rating
add to favorites
launch autoscroll
font size
0
reset
how to read this tab
guitar tuner
Autoscroll
slow
fast
+/-
esc
set tempo
stop
Help us to improve Ultimate-Guitar.com Take our survey!
×
Author
Difficulty
intermediate
-3-----3h5p3-----3-----3h5p3-----3-----3h5p3-----3-----3h5p3----|
----------------------------------------------------------------|
----0---------0-----0---------0-----0---------0-----0---------0-|
----------------------------------------------------------------|
----------------------------------------------------------------|
-3---------------3---------------3---------------3--------------|


-3-----3h5p3-----3-----3h5p3-----3-----3h5p3-----3-----3h5p3----|
----------------------------------------------------------------|
----0---------0-----0---------0-----0---------0-----0---------0-|
----------------------------------------------------------------|
----------------------------------------------------------------|
-3---------------3---------------3---------------3--------------|


-1-----1-----11-----11-----3-----3h5p3-----3-----3h5p3----|
----------------------------------------------------------|
----0-----0------0------0-----0---------0-----0---------0-|
----------------------------------------------------------|
----------------------------------------------------------|
-1-----1-----11-----11-----3---------------3--------------|


-1-----1-----11-----11-----3-----3h5p3-----3-----3h5p3----|
----------------------------------------------------------|
----0-----0------0------0-----0---------0-----0---------0-|
----------------------------------------------------------|
----------------------------------------------------------|
-1-----1-----11-----11-----3---------------3--------------|


-3-----3h5p3-----3-----3h5p3-----6-----6-----6-----6----|
--------------------------------------------------------|
----0---------0-----0---------0-----0-----0-----0-----0-|
--------------------------------------------------------|
--------------------------------------------------------|
-3---------------3---------------6-----6-----6-----6----|


-5-----5-----5-----5-----6-----6-----6-----6-----5----|
------------------------------------------------------|
----0-----0-----0-----0-----0-----0-----0-----0-----0-|
------------------------------------------------------|
------------------------------------------------------|
-5-----5-----5-----5-----6-----6-----6-----6-----5----|


-5-----5-----5-----8-----8-----8-----8-----3-----3-----3----|
------------------------------------------------------------|
----0-----0-----0-----0-----0-----0-----0-----0-----0-----0-|
------------------------------------------------------------|
------------------------------------------------------------|
-5-----5-----5-----8-----8-----8-----8-----3-----3-----3----|


-3-----11-----11-----11-----11-----10-----10-----10-----10----|
--------------------------------------------------------------|
----0------0------0------0------0------0------0------0------0-|
--------------------------------------------------------------|
--------------------------------------------------------------|
-3-----11-----11-----11-----11-----10-----10-----10-----10----|


-3-----3h5p3-----3-----3h5p3-----3-----3h5p3-----3-----3-----3-|
---------------------------------------------------------------|
----0---------0-----0---------0-----0---------0-----0-----0----|
---------------------------------------------------------------|
---------------------------------------------------------------|
-3---------------3---------------3---------------3-------------|


-6-----6-----6-----6-----5-----5-----5-----5-----6-----6-----6----|
------------------------------------------------------------------|
----0-----0-----0-----0-----0-----0-----0-----0-----0-----0-----0-|
------------------------------------------------------------------|
------------------------------------------------------------------|
-6-----6-----6-----6-----5-----5-----5-----5-----6-----6-----6----|


-6-----5-----5-----5-----5-----8-----8-----8-----8-----3-----3----|
------------------------------------------------------------------|
----0-----0-----0-----0-----0-----0-----0-----0-----0-----0-----0-|
------------------------------------------------------------------|
------------------------------------------------------------------|
-6-----5-----5-----5-----5-----8-----8-----8-----8-----3-----3----|


-3-----3-----11-----11-----11-----11-----10-----10-----10-----10----|
--------------------------------------------------------------------|
----0-----0------0------0------0------0------0------0------0------0-|
--------------------------------------------------------------------|
--------------------------------------------------------------------|
-3-----3-----11-----11-----11-----11-----10-----10-----10-----10----|


-9-----9-----9-----3-----8-----8-----8-----8-----11-----11-----11----|
---------------------------------------------------------------------|
----0-----0-----0-----0-----0-----0-----0-----0------0------0------0-|
---------------------------------------------------------------------|
---------------------------------------------------------------------|
-9-----9-----9-----3-----8-----8-----8-----8-----11-----11-----11----|


-11-----10-----10-----10-----10-----3-----3h5p3-----3-----3h5p3----|
-------------------------------------------------------------------|
-----0------0------0------0------0-----0---------0-----0---------0-|
-------------------------------------------------------------------|
-------------------------------------------------------------------|
-11-----10-----10-----10-----10-----3---------------3--------------|


-3-----3h5p3-----3h5p3-----3-----6-----6-----5-----5-----8-----8----|
--------------------------------------------------------------------|
----0---------0---------0-----------0-----0-----0-----0-----0-----0-|
--------------------------------------------------------------------|
--------------------------------------------------------------------|
-3-------------------------3-----6-----6-----5-----5-----8-----8----|


-3-----3-----11-----11-----10-----10-----8-----8-----8-----8----|
----------------------------------------------------------------|
----0-----0------0------0------0------0-----0-----0-----0-----0-|
----------------------------------------------------------------|
----------------------------------------------------------------|
-3-----3-----11-----11-----10-----10-----8-----8-----8-----8----|


-6-----6-----5-----5-----8-----8-----3-----3-----11-----11----|
--------------------------------------------------------------|
----0-----0-----0-----0-----0-----0-----0-----0------0------0-|
--------------------------------------------------------------|
--------------------------------------------------------------|
-6-----6-----5-----5-----8-----8-----3-----3-----11-----11----|


-10-----10-----8-----8-----8-----8-----6-----6-----6-----6----|
--------------------------------------------------------------|
-----0------0-----0-----0-----0-----0-----0-----0-----0-----0-|
--------------------------------------------------------------|
---------------------------------------6-----6-----6-----6----|
-10-----10-----8-----8-----8-----8----------------------------|


-3-----3-----3-----3-----5-----5-----5-----5-----3-----3-----3----|
------------------------------------------------------------------|
----0-----0-----0-----0-----0-----0-----0-----0-----0-----0-----0-|
------------------------------------------------------------------|
-------------------------5-----5-----5-----5----------------------|
-3-----3-----3-----3-----------------------------3-----3-----3----|


-3-----6-----6-----6-----6-----3-----3-----3-----3-----5-----5----|
------------------------------------------------------------------|
----0-----0-----0-----0-----0-----0-----0-----0-----0-----0-----0-|
------------------------------------------------------------------|
-------6-----6-----6-----6-----------------------------5-----5----|
-3-----------------------------3-----3-----3-----3----------------|


-5-----5-----3-----3-----3-----3-----7-----7-----7-----7----|
------------------------------------------------------------|
----0-----0-----0-----0-----0-----0-----0-----0-----0-----0-|
------------------------------------------------------------|
-5-----5-----------------------------5-----5-----5-----5----|
-------------3-----3-----3-----3----------------------------|


-6-----6-----6-----6-----5-----5-----5-----5-----3-----3-----3h5p3----|
----------------------------------------------------------------------|
----0-----0-----0-----0-----0-----0-----0-----0-----0-----0---------0-|
----------------------------------------------------------------------|
-4-----4-----4-----4-----3-----3-----3-----3--------------------------|
-------------------------------------------------3--------------------|


-3-----7-----7-----7-----7-----6-----6-----6-----6-----5-----5----|
------------------------------------------------------------------|
----0-----0-----0-----0-----0-----0-----0-----0-----0-----0-----0-|
------------------------------------------------------------------|
-------5-----5-----5-----5-----4-----4-----4-----4-----3-----3----|
-3----------------------------------------------------------------|


-5-----5-----3-----3-----3h5p3-----3-----7-----7-----7-----7----|
----------------------------------------------------------------|
----0-----0-----0-----0---------0-----0-----0-----0-----0-----0-|
----------------------------------------------------------------|
-3-----3---------------------------------5-----5-----5-----5----|
-------------3---------------------3----------------------------|


-5-----5-----5-----5-----3-----3h5p3-----3-----3h5p3----|
--------------------------------------------------------|
----0-----0-----0-----0-----0---------0-----0---------0-|
--------------------------------------------------------|
-3-----3-----3-----3------------------------------------|
-------------------------3---------------3--------------|


-3-----3h5p3-----3-----3h5p3-----1-----1-----11-----11----|
----------------------------------------------------------|
----0---------0-----0---------0-----0-----0------0------0-|
----------------------------------------------------------|
----------------------------------------------------------|
-3---------------3---------------1-----1-----11-----11----|


-3-----3h5p3-----3-----3h5p3-----1-----1-----11-----11----|
----------------------------------------------------------|
----0---------0-----0---------0-----0-----0------0------0-|
----------------------------------------------------------|
----------------------------------------------------------|
-3---------------3---------------1-----1-----11-----11----|


-3-----3h5p3-----3-----3h5p3-----1-----1-----11-----11-----|
-----------------------------------------------------------|
----0---------0-----0---------0-----0-----0------0------0--|
-----------------------------------------------------------|
-----------------------------------------------------------|
-3---------------3---------------1-----1-----11-----11-----|


-3-----3h5p3-----3-----3h5p3-----1-----1-----11-----11-----3-|
-------------------------------------------------------------|
----0---------0-----0---------0-----0-----0------0------0----|
-------------------------------------------------------------|
-------------------------------------------------------------|
-3---------------3---------------1-----1-----11-----11-----3-|
Suggest correction
Give kudos to tab author, rate the tab!
1 2 3 4 5
comments
print report bad tab
guest
You may want to rate the tab now too:
select rating
Wanna post a correction for this tab? Suggest correction