Oops, an error
Loading. Please wait.

Reminiscence tab

version 1
version 1

Whole song

Interactive

6,184 views 1 this week
no commentswrite comment
1 2 3 4 5
2 more votes to show rating
add to favorites
×
Save as Personal and add changes to this tab that will be seen only by you. Learn more ›
×
You can save this tab as Personal to edit and correct it or add notes. All changes will be seen only by you. Learn more »
launch autoscroll
font size
0
reset
how to read this tab
guitar tuner
edit
Autoscroll
slow
fast
+/-
esc
set tempo
stop
Author
Difficulty
                Reminiscence                 


     Versailles (http://versailles.syncl.jp/)




      S  S  S  S  S  S  S  S  S  S  S  S  
E||--------------------------------------|
B||-----------------------16-15-13-------|
G||--------------12-13-15----------15-13-|
D||--13-12-13-15-------------------------|
A||--------------------------------------|
E||--------------------------------------|


   S  S  S  S  S  S  S  S  S  S  S  S  
--------------------------------------|
--------------------------------------|
--12-15-13-12-------------------------|
--------------15-13-12-15-13-12-------|
--------------------------------15-13-|
--------------------------------------|


   S  S  S  S  S  S  S  S  S  S  S  S  
--------------------------------------|
-----------------------16-15-13-------|
--------------12-13-15----------15-13-|
--13-12-13-15-------------------------|
--------------------------------------|
--------------------------------------|


   S  S  S  S  S  S  Q.       
-----------------------------|
-----------15-18-15-16~------|
--12-15-13-------------------|
-----------------------------|
-----------------------------|
-----------------------------|


   S  S  S  S  S  S  S  S  S  S  S  S  
--------------------------------------|
-----------------------16-15-13-------|
--------------12-13-15----------15-13-|
--13-12-13-15-------------------------|
--------------------------------------|
--------------------------------------|


   S  S  S  S  S  S  S  S  S  S  E   
------------------------------------|
------------------------------------|
--12-15-13-12-----------------------|
--------------15-13-15----12-15-----|
-----------------------13-------13--|
------------------------------------|


   S  S  S  S  S  S  S  S  S  S  S  S  
--------------------------------------|
-----------------------16-15-13-------|
--------------12-13-15----------15-13-|
--13-12-13-15-------------------------|
--------------------------------------|
--------------------------------------|


   S  S  S  S  S  S  Q.       
-----------------------------|
-----------15-18-15-16~------|
--12-15-13-------------------|
-----------------------------|
-----------------------------|
-----------------------------|


   S  S  S  S  S  S  S  S  S  S  S  S  
--------------------------------------|
--------------------------------------|
--------------------------------------|
--12-15----15-12-15-13-17----17-13-17-|
--------13----------------13----------|
--------------------------------------|


   S  S  S  S  S  S  S  S  S  S  S  S  
--------------------------------------|
--------------------------------------|
--13-17----17-13-17-12-15----15-12-15-|
--------13----------------13----------|
--------------------------------------|
--------------------------------------|


   S  S  S  S  S  S  S  S  S  S  S  S  
--------------------------------------|
--------------------------------------|
--------------------------------------|
--12-15----15-12-15-13-17----17-13-17-|
--------13----------------13----------|
--------------------------------------|


   S  S  S  S  S  S  E   S  S  S  S  
------------------------------------|
------------------------------------|
--13-17----17-13-17-15--13-12-------|
--------13--------------------15-13-|
------------------------------------|
------------------------------------|


   S  S  S  S  S  S  S  S  S  S  S  S  
--------------------------------------|
--------------------------------------|
--------------------------------------|
--12-15----15-12-15-13-17----17-13-17-|
--------13----------------13----------|
--------------------------------------|


   S  S  S  S  S  S  S  S  S  S  S  S  
--------------------------------------|
--------------------------------------|
--13-17----17-13-17-12-15----15-12-15-|
--------13----------------13----------|
--------------------------------------|
--------------------------------------|


   S  S  S  S  S  S  S  S  S  S  S  S  
--------------------------------------|
--16----13----15----16----13----15----|
-----13----13----13----13----13----13-|
--------------------------------------|
--------------------------------------|
--------------------------------------|


   S  S  S  S  S  S  S  S  S  S  S  S  
--------------------------------------|
--16----13----15----16----13----15----|
-----13----13----13----13----13----13-|
--------------------------------------|
--------------------------------------|
--------------------------------------|


   S  S  S  S  S  S  S  S  S  S  S  S  
--------------------------------------|
--18----15----16----18----15----16----|
-----15----15----15----15----15----15-|
--------------------------------------|
--------------------------------------|
--------------------------------------|


   S  S  S  S  S  S  S  S  Q     
--------------------------------|
--18----------15-13-15-16-18----|
-----15-17-15-------------------|
--------------------------------|
--------------------------------|
--------------------------------|


   S  S  E   S  S  S  S  E   E   
--------------------------------|
----------------------------16--|
--12-13-15--15-15-15-15-15------|
--------------------------------|
--------------------------------|
--------------------------------|


             |--3--|                
   S  S  E   S  S  S  E   E   S  S  
-----------------------------------|
-----------------------------------|
--13-12-13--12-13-12-----12--13-15-|
---------------------15------------|
-----------------------------------|
-----------------------------------|


   E   E   S  S  S  S  E   E   
------------------------------|
--------------------------16--|
--12--15--15-15-15-15-15------|
------------------------------|
------------------------------|
------------------------------|


             |--3--|             
   S  S  E   S  S  S  E   Q      
--------------------------------|
--------------------------------|
--13-12-13--12-13-12------------|
---------------------15--13~----|
--------------------------------|
--------------------------------|


   S  S  E   S  S  S  S  E   E   
--------------------------------|
----------------------------16--|
--12-13-15--15-15-15-15-15------|
--------------------------------|
--------------------------------|
--------------------------------|


             |--3--|                
   S  S  E   S  S  S  E   E   S  S  
-----------------------------------|
-----------------------------------|
--13-12-13--12-13-12-----12--13-15-|
---------------------15------------|
-----------------------------------|
-----------------------------------|


   E   E   S  S  S  S  E   E   
------------------------------|
--------------------------16--|
--12--15--15-15-15-15-15------|
------------------------------|
------------------------------|
------------------------------|


             |--3--|             
   S  S  E   S  S  S  E   Q      
--------------------------------|
--------------------------------|
--13-12-13--12-13-12------------|
---------------------15--13~----|
--------------------------------|
--------------------------------|


   E   E   E   E   E   E   
--------------------------|
--------------------------|
--------------------------|
--15--15--15--17--15--17--|
--------------------------|
--------------------------|


       |--3--|                    
   E   S  S  S  E   E   S  S  E   
---------------------------------|
---------------------------------|
---------------------------------|
--18--17-18-17-15--17--15-13-15--|
---------------------------------|
---------------------------------|


   E   E   E   E   E   E   
--------------------------|
--------------------------|
--------------------------|
--15--15--15--17--15--17--|
--------------------------|
--------------------------|


       |--3--|               
   E   S  S  S  E   Q.       
----------------------------|
----------------------------|
----------------------------|
--18--17-18-17-15--17~------|
----------------------------|
----------------------------|


   E   E   E   E   E   E   
--------------------------|
--------------------------|
--------------------------|
--15--15--15--17--15--17--|
--------------------------|
--------------------------|


       |--3--|                    
   E   S  S  S  E   E   S  S  E   
---------------------------------|
---------------------------------|
---------------------------------|
--18--17-18-17-15--17--15-13-15--|
---------------------------------|
---------------------------------|


   E   E   E   E   E   E   
--------------------------|
--------------------------|
--------------------------|
--15--15--15--17--15--17--|
--------------------------|
--------------------------|


   E   E   E   Q.       
-----------------------|
-----------------------|
-----------------------|
--18--17--18--20~------|
-----------------------|
-----------------------|


   S  S  E   S  S  S  S  E   E   
--------------------------------|
----------------------------16--|
--12-13-15--15-15-15-15-15------|
--------------------------------|
--------------------------------|
--------------------------------|


             |--3--|                
   S  S  E   S  S  S  E   E   S  S  
-----------------------------------|
-----------------------------------|
--13-12-13--12-13-12-----12--13-15-|
---------------------15------------|
-----------------------------------|
-----------------------------------|


   E   E   S  S  S  S  E   E   
------------------------------|
--------------------------16--|
--12--15--15-15-15-15-15------|
------------------------------|
------------------------------|
------------------------------|


             |--3--|             
   S  S  E   S  S  S  E   Q      
--------------------------------|
--------------------------------|
--13-12-13--12-13-12------------|
---------------------15--13~----|
--------------------------------|
--------------------------------|


   S  S  E   S  S  S  S  E   E   
--------------------------------|
----------------------------16--|
--12-13-15--15-15-15-15-15------|
--------------------------------|
--------------------------------|
--------------------------------|


             |--3--|                
   S  S  E   S  S  S  E   E   S  S  
-----------------------------------|
-----------------------------------|
--13-12-13--12-13-12-----12--13-15-|
---------------------15------------|
-----------------------------------|
-----------------------------------|


   E   E   S  S  S  S  E   E   
------------------------------|
--------------------------16--|
--12--15--15-15-15-15-15------|
------------------------------|
------------------------------|
------------------------------|


             |--3--|             
   S  S  E   S  S  S  E   Q      
--------------------------------|
--------------------------------|
--13-12-13--12-13-12------------|
---------------------15--13~----|
--------------------------------|
--------------------------------|


   E   E   E   E   E   E   
--------------------------|
--------------------------|
--------------------------|
--15--15--15--17--15--17--|
--------------------------|
--------------------------|


       |--3--|                    
   E   S  S  S  E   E   S  S  E   
---------------------------------|
---------------------------------|
---------------------------------|
--18--17-18-17-15--17--15-13-15--|
---------------------------------|
---------------------------------|


   E   E   E   E   E   E   
--------------------------|
--------------------------|
--------------------------|
--15--15--15--17--15--17--|
--------------------------|
--------------------------|


       |--3--|               
   E   S  S  S  E   Q.       
----------------------------|
----------------------------|
----------------------------|
--18--17-18-17-15--17~------|
----------------------------|
----------------------------|


   E   E   E   E   E   E   
--------------------------|
--------------------------|
--------------------------|
--15--15--15--17--15--17--|
--------------------------|
--------------------------|


       |--3--|                    
   E   S  S  S  E   E   S  S  E   
---------------------------------|
---------------------------------|
---------------------------------|
--18--17-18-17-15--17--15-13-15--|
---------------------------------|
---------------------------------|


   E   E   E   E   E   E   
--------------------------|
--------------------------|
--------------------------|
--15--15--15--17--15--17--|
--------------------------|
--------------------------|


   E   E   E   Q.       
-----------------------|
-----------------------|
-----------------------|
--18--17--18--20~------|
-----------------------|
-----------------------|


   S  S  S  S  S  S  S  S  S  S  S  S  
--------------------------------------|
-----------------------16-15-13-------|
--------------12-13-15----------15-13-|
--13-12-13-15-------------------------|
--------------------------------------|
--------------------------------------|


   S  S  S  S  S  S  S  S  S  S  S  S  
--------------------------------------|
--------------------------------------|
--12-15-13-12-------------------------|
--------------15-13-12-15-13-12-------|
--------------------------------15-13-|
--------------------------------------|


   S  S  S  S  S  S  S  S  S  S  S  S  
--------------------------------------|
-----------------------16-15-13-------|
--------------12-13-15----------15-13-|
--13-12-13-15-------------------------|
--------------------------------------|
--------------------------------------|


   S  S  S  S  S  S  Q.       
-----------------------------|
-----------15-18-15-16~------|
--12-15-13-------------------|
-----------------------------|
-----------------------------|
-----------------------------|


   S  S  S  S  S  S  S  S  S  S  S  S  
--------------------------------------|
-----------------------16-15-13-------|
--------------12-13-15----------15-13-|
--13-12-13-15-------------------------|
--------------------------------------|
--------------------------------------|


   S  S  S  S  S  S  S  S  S  S  E   
------------------------------------|
------------------------------------|
--12-15-13-12-----------------------|
--------------15-13-15----12-15-----|
-----------------------13-------13--|
------------------------------------|


   S  S  S  S  S  S  S  S  S  S  S  S  
--------------------------------------|
-----------------------16-15-13-------|
--------------12-13-15----------15-13-|
--13-12-13-15-------------------------|
--------------------------------------|
--------------------------------------|


   S  S  S  S  S  S  Q.       
-----------------------------|
-----------15-18-15-16~------|
--12-15-13-------------------|
-----------------------------|
-----------------------------|
-----------------------------|


       >          >      
   E   Q      E   Q      
------------------------|
------16~--------18~----|
--15---------15---------|
------------------------|
------------------------|
------------------------|


       >                   
   E   E.    S  E   Q      
--------------------------|
------20~---18-16--18~----|
--15----------------------|
--------------------------|
--------------------------|
--------------------------|


   E   E   E   E   E   E   
------15--16--18--20--18--|
--------------------------|
--15----------------------|
--------------------------|
--------------------------|
--------------------------|


   E   Q     E   Q     
--16--15--------------|
------------18--16----|
----------------------|
----------------------|
----------------------|
----------------------|


       >          >      
   E   Q      E   Q      
------------------------|
------16~--------18~----|
--15---------15---------|
------------------------|
------------------------|
------------------------|


       >            >      
   E   E.    S  E   Q      
--------------------------|
------20~---18-16--18~----|
--15----------------------|
--------------------------|
--------------------------|
--------------------------|


   E   E   E   E   E   E   
------15--16--18--20--18--|
--------------------------|
--15----------------------|
--------------------------|
--------------------------|
--------------------------|


   E   Q      E   Q      
--16--15~---------------|
-------------18--16~----|
------------------------|
------------------------|
------------------------|
------------------------|


   S  S  S  S  S  S  S  S  S  S  S  S  
-----18-16-18-15-18-13-18----18----18-|
--16----------------------16----15----|
--------------------------------------|
--------------------------------------|
--------------------------------------|
--------------------------------------|


   S  S  S  S  S  S  S  S  S  S  S  S  
-----18-16-18-15-18-15-18-16-15-13-10-|
--16----------------------------------|
--------------------------------------|
--------------------------------------|
--------------------------------------|
--------------------------------------|


   S  S  S  S  S  S  S  S  S  S  S  S  
-----18-16-18-15-18-13-18----18----18-|
--16----------------------16----15----|
--------------------------------------|
--------------------------------------|
--------------------------------------|
--------------------------------------|


   S  S  S  S  S  S  S  S  Q     
-----18-16-18-13-16-15-16-18----|
--16----------------------------|
--------------------------------|
--------------------------------|
--------------------------------|
--------------------------------|


   S  S  E   S  S  S  S  E   S  S  
------------------11--------------|
--------11--11-11----11-----------|
--12-13-----------------13--13-12-|
----------------------------------|
----------------------------------|
----------------------------------|


   S  S  E   S  S  S  S  E   S  S  
------------------11--------------|
--------11--11-11----11-----------|
-----12-----------------13--13-12-|
--13------------------------------|
----------------------------------|
----------------------------------|


  E   E   S  S  S  S  E   S  S  
-------------------------------|
---------------16--------------|
--L--15--15-15----15-13--13-12-|
-------------------------------|
-------------------------------|
-------------------------------|


   S  S  E   S  S  S  S  S  S  S  S  
------------------------------------|
------------------16----18-16-15-16-|
-----12-15--15-15----15-------------|
--13--------------------------------|
------------------------------------|
------------------------------------|


  E   E   S  S  S  S  E   S  S  
-------------------------------|
--L------------16--------------|
-----15--15-15----15-13--13-12-|
-------------------------------|
-------------------------------|
-------------------------------|


   S  S  E   S  S  S  S  E   S  S  
----------------------------------|
------------------16--------------|
-----12-15--15-15----15-13--13-12-|
--13------------------------------|
----------------------------------|
----------------------------------|


  E   E   S  S  S  S  E   S  S  
-------------------------------|
---------------16--------------|
--L--15--15-15----15-13--13-12-|
-------------------------------|
-------------------------------|
-------------------------------|


   S  S  E   S  S  S  S  S  S  S  S E   
---------------------------------------|
------------------16----18-16-15-16-L--|
-----12-15--15-15----15----------------|
--13-----------------------------------|
---------------------------------------|
---------------------------------------|


   E   S  S  S  S  E   S  S  S  S  
----------------------------------|
---------16-15-16--------18-16-18-|
--15--15----------15--15----------|
----------------------------------|
----------------------------------|
----------------------------------|


   E   S  S  S  S  S  S  S  S  S  S  
------------------------------------|
---------20-18-20-21-20-18-15-16-18-|
--15--15----------------------------|
------------------------------------|
------------------------------------|
------------------------------------|


   E   S  S  S  S  E   S  S  S  S  
----------------------------------|
---------16-15-16--------18-16-18-|
--15--15----------15--15----------|
----------------------------------|
----------------------------------|
----------------------------------|


   E   S  S  S  S  E   S  E.   
------------------------------|
---------20-18-20-21--21-20---|
--15--15----------------------|
------------------------------|
------------------------------|
------------------------------|


   E   S  S  S  S  E   S  S  S  S  
----------------------------------|
---------16-15-16--------18-16-18-|
--15--15----------15--15----------|
----------------------------------|
----------------------------------|
----------------------------------|


   E   S  S  S  S  S  S  S  S  S  S  
------------------------------------|
---------20-18-20-21-20-18-15-16-18-|
--15--15----------------------------|
------------------------------------|
------------------------------------|
------------------------------------|


   E   S  S  S  S  E   S  S  S  S  
----------------------------------|
---------16-15-16--------18-16-18-|
--15--15----------15--15----------|
----------------------------------|
----------------------------------|
----------------------------------|


   E   S  S  S  S  S  S  S  S  S  S  
------------------------------------|
---------20-18-20-21-20-18-15-16-18-|
--15--15----------------------------|
------------------------------------|
------------------------------------|
------------------------------------|


   H.              
-----------------||
--16~------------||
-----------------||
-----------------||
-----------------||
-----------------||




Duration Legend
---------------
W - whole
H - half
Q - quarter
E - 8th
S - 16th
T - 32nd
X - 64th
. - note dotted
|-n-|  - n-tuplets


Tablature Legend
----------------
L - tied note
x - dead note
g - grace note
(n) - ghost note
> - accentuded note
NH - natural harmonic
AH - artificial harmonic
TH - tapped harmonic
SH - semi harmonic
PH - pitch harmonic
h - hammer on
p - pull off
b - bend
br - bendRelease
pb - preBend
pbr - preBendRelease
brb - bendReleaseBend
\n/ - tremolo bar dip
\n - tremolo bar dive
-/n - tremolo bar Release up
/n\ - tremolo bar inverted dip
/n - tremolo bar return
-\n - tremolo bar Release down
S - shift slide
s - legato slide
/ -  slide into from below or out of upwards
\ -  slide into from above or out of downwards
~ - vibrato
W - wide vibrato
tr - trill
TP - tremolo picking
T - tapping
S - slap
P - pop
< - fade in
^ - brush up
v - brush down

            
            
Suggest correction
Creating personal tab
Creating personal tab
You can edit any tab online and save it as your Personal.

You can edit, replace or remove any tab part or add personal notes – all changes will be seen only by you.

Personal tabs can be accessed anytime from any device, even offline.
Learn more »
Give kudos to tab author, rate the tab!
1 2 3 4 5
comments
print report bad tab
guest
You may want to rate the tab now too:
select rating
Wanna post a correction for this tab? Suggest correction