Oops, an error
Loading. Please wait.

Rey De Majestad tab

version 1
version 1

Whole song

78 views 1 this week
no commentswrite comment
1 2 3 4 5
3 more votes to show rating
add to favorites
×
Save as Personal and add changes to this tab that will be seen only by you. Learn more ›
×
You can save this tab as Personal to edit and correct it or add notes. All changes will be seen only by you. Learn more »
launch autoscroll
font size
0
reset
how to read this tab
guitar tuner
edit
Autoscroll
slow
fast
+/-
esc
set tempo
stop
Cualkier duda a mi correo jorgitoxdxd@ Dios les
bendiga.


CORO
   B5        E5     F#5       E5       B5 , E5 , F#5 , E5
////Cristo eres el salvador de mi ser
        B5        E5     F#5
Y por siempre y siempre daré
    E5                    B5 , E5 , F#5 , E5
Alabanzas a ti///


SOLO:

e|--9b-9b-7--7----------------------------9b-9b-7----7---------|
B|---------9-7-----------------------------------9-9-7---------|
G|-------------6--------8----11------6/8-----------------------|
D|-----------------9h11--11-9--11-9v---------------------------|
A|-------------------------------------------------------------|
E|-------------------------------------------------------------|


e|---9-7-7--9p7--9p7--9p7--9p7--9v-----------------------------|
B|------9------9----9----9----9---9---7p5--7p5--7p5--7p5-7v----|
G|---------------------------------------6----6----6----6--6-4v|
D|-------------------------------------------------------------|
A|-------------------------------------------------------------|
E|-------------------------------------------------------------|

CORO(1 ves)
Cristo eres el salvador de mi ser
Y por siempre y siempre daré
Alabanzas a ti

Luego haces este arpegio en B en todo el coro(16veces)
e|-------2--------------------------|
B|----------------------------------|
G|-----4----------------------------|
D|----4-----------------------------|
A|---2------------------------------|
E|----------------------------------|


Al terminar haces este arpegio(4veces)

e|-------2-----------2----------------|
B|-----------2-----2------------------|
G|-----4---4-----4--------------------|
D|---4---4-----4----------------------|
A|------------------------------------|
E|------------------------------------|
Suggest correction
Creating personal tab
Creating personal tab
You can edit any tab online and save it as your Personal.

You can edit, replace or remove any tab part or add personal notes – all changes will be seen only by you.

Personal tabs can be accessed anytime from any device, even offline.
Learn more »
Give kudos to tab author, rate the tab!
1 2 3 4 5
comments
print report bad tab
guest
Wanna post a correction for this tab? Suggest correction