Oops, an error
Loading. Please wait.

Found In You Bass Tab

version 2
version 2

Whole song

7 views 1 this week
no commentswrite comment
1 2 3 4 5
3 more votes to show rating
add to favorites
launch autoscroll
font size
0
reset
guitar tuner
Autoscroll
slow
fast
+/-
esc
set tempo
stop
Help us to improve Ultimate-Guitar.com Take our survey!
×
Author
Difficulty
[Intro 4x, however bass comes in after 2x] 
"Oh, oh oh oh oh..."
G|----------------------------------------------------|
D|----------------------------------------------------|
A|-------/8-8-8--3-3-3-33--------/12-12-12------------|
E|-1-1-1------------------5-5-5------------3-3-3-33---|


[Verse]
Silent first 1/2, start with:
"Flood our thoughts...."

G|-----------------------------------------------------|
D|-----------------------------------------------------|
A|--------12r----10r-----------12r----10r--------------|
E|-13r------------------13r----------------------------|

Do this twice, then build up to Chorus on this...

G|-----------------------------------------------------|
D|-----------------------------------------------------|
A|-----------------------------------------------------|
E|-3r--------------------------------------------------|


[Chorus]
'Till all we want..."

G|-----------------------------------------------------|
D|-----------------------------------------------------|
A|-3-3-3-3-3-3-----------------------------------------|
E|--------------1-1-1-1-1--5-5-5-5-5-3-3-3-3-3---------|


G|-----------------------------------------------------|
D|-----------------------------------------------------|
A|-------/8-8-8--3-3-3-33--------/12-12-12-------------|
E|-1-1-1------------------5-5-5------------3-3-3-33----|


(Verse II)
"Open wide our hearts now to yours..."

G|-----------------------------------------------------|
D|-----------------------------------------------------|
A|-----------------------------------------------------|
E|-1-1-1-1-1-1-1-1--5-5-5-5-5-5-5-5--3-3-3-3-3-3-3-3---|

Do above 4x, then slide to G on the 10th fret (use this to build up before Chorus)

G|-----------------------------------------------------|
D|-----------------------------------------------------|
A|-/10-10-10-10-10-10-10-------------------------------|
E|-----------------------------------------------------|

[Chorus]
G|-----------------------------------------------------|
D|-----------------------------------------------------|
A|-------/8-8-8--3-3-3-33--------/12-12-12-------------|
E|-1-1-1------------------5-5-5------------3-3-3-33----|

[Outro]
"And in your presence there is freedom..."
Silent first time through, then....

Ring out 1x, then play this 2x slowly building up to last Chorus
G|---------------------------------------------------------------------------|
D|---------------------------------------------------------------------------|
A|-------------------------12r----------------------10r-------------10r------|
E|-13r-----------------------------------------------------------------------|

G|---------------------------------------------------------------------------|
D|---------------------------------------------------------------------------|
A|-------------------------12-12-12-12-12-12-12-12--10-10-10-10-10--10-10-10-|
E|-13-13-13-13-13-13-13-13---------------------------------------------------|

[Chorus]
'Till all we want..."

Ring out first half... (play below 2x)
G|-------------------------------------------------|
D|-------------------------------------------------|
A|-3r----------------------------------------------|
E|--------------1r---------5r--------3r------------|

Then play out the second half (play below 2x)
[Chorus]
'Till all we want..."
G|-------------------------------------------------|
D|-------------------------------------------------| x2
A|-3-3-3-3-3-3-------------------------------------|
E|--------------1-1-1-1-1--5-5-5-5-5-3-3-3-3-3-----|


G|-----------------------------------------------------|
D|-----------------------------------------------------| x2
A|-------/8-8-8--3-3-3-33--------/12-12-12-------------|
E|-1-1-1------------------5-5-5------------3-3-3-33----|

G|----------|
D|----------|
A|-3--------|
E|----------|


************************************

| r   Hold
| /   Slide up
| \   Slide down

************************************
Suggest correction
Give kudos to tab author, rate the tab!
1 2 3 4 5
comments
print report bad tab
guest
You may want to rate the tab now too:
select rating
Wanna post a correction for this tab? Suggest correction