Oops, an error
Loading. Please wait.

Instamatic tab

73 views 1 this week
no commentswrite comment
1 2 3 4 5
3 more votes to show rating
add to favorites
×
Save as Personal and add changes to this tab that will be seen only by you. Learn more ›
×
You can save this tab as Personal to edit and correct it or add notes. All changes will be seen only by you. Learn more »
launch autoscroll
font size
0
reset
how to read this tab
guitar tuner
edit
Autoscroll
slow
fast
+/-
esc
set tempo
stop
[Intro]
(Gtr 1)
e|---------------------------------------------------------------------------|
B|---------------------------------------------------------------------------|
G|----------------------------------------------13-13-13----13-13-13---------|
D|-16-16-16---16-16-16---16-16-16----16-16-16---14-14-14-16-14-14-14-16--14--|                             
A|-14-14-14---14-14-14---14-14-14----14-14-14---14-14-14-14-14-14-14-14--14--|
E|--0--0--0-0--0--0--0-0--0--0--0-0---0--0--0----0--0--0--0--0--0--0--0---0--|

(Gtr 2)
e|---------------------------------------------------------------------------|
B|------------------------------------7--7--7----9--9--9--7--9--9--9--7------|
G|------------------------------------9--9--9----7--7--7--7--7--7--7--7---9--|
D|------------------------------------9--9--9----9--9--9--9--9--9--9--9---9--|
A|------------------------------------7--7--7----7--7--7--7--7--7--7--7---7--|
E|---------------------------------------------------------------------------|

[Verse 1]
(Gtr 1)
e|--------------------------------------------------------------------------------------------------------|
B|--------------------------------------------------------10-------------10-------------------------------|
G|-13----------13----------13--------------13-------------11-------------11----------13-11-14-13-11-9-13--|
D|-14----------14----------14--------------14--------------x--------------x-----------x--x--x--x--x-x-14--|
A|-14----------14----------14--------------14-------------12-------------12----------11--9-12-11--9-7-14--|
E|--0-----------0-----------0---------------0-----------------------------------------0--0--0--0--0-0--0--|
      
(Gtr 2)
e|--------------------------------------------------------------------------------------------------------|
B|-7-----------7---------------7--------------7--------------5---------------5----------------------------|
G|---9------------9---------------9--------------9--------------7---------------7----13-11-14-13-11-9-13--|
D|-----9-------------9---------------9--------------9--------------7---------------7--x--x--x--x--x-x-14--|
A|----------7---------------7--------------7---------------5--------------5----------11--9-12-11--9-7-14--|
E|------------------------------------------------------------------------------------0--0--0--0--0-0--0--|
       Lost causes turn you on          so I'm the perfect one.      Your eyes say it's OK now   OK now  
          I swore I'd never give        But your camera's were well hid. So now I've got to pay now pay now

[Chorus]
         Fm          Asus2         E             Fm 
e|--------2------------0-----------0-------------2-------------------------------------------------|
B|--------2------------0-----------0-------------2-------------------------------------------------|
G|--------2------------2-----------1-------------2------------------------9--11--13--14--13--11----|
D|--------4------------2-----------2-------------4------------------------x---x---x---x---x---x----|
A|--------4------------0-----------2-------------4------------------------7---9--11--12--11---9----|
E|--------2------------------------0-------------2-------------------------------------------------|
  and the memories are mostly instamatic. What's left of me is left to you

         Fm             Asus2          E               D                  A6/Db           E5
e|--------2---------------0------------0---------------2--------------------2----------------------|
B|--------2---------------0------------0---------------3--------------------2----------------------|
G|--------2---------------2------------1---------------2--------------------2--------------9-------|
D|--------4---------------2------------2---------------4--------------------2--------------9-------|
A|--------4---------------0------------2---------------5--------------------4--------------7-------|
E|--------2----------------------------0-----------------------------------------------------------|    
  and the battleships are circling and waiting for your call. No use flying I just love the fall.

e|-------------------------------------------------------------------------------------------------|
B|-10--10----10--10--10---10--10----10--10--10---10--10----10--10----------------------------------|
G|-11--11----11--11--11---11--11----11--11--11---11--11----11--11----------------------------------|
D|--x---x---------x---x----x---x-----x---x---x----x---x-----x---x--14-14-14-14-14------------------|
A|-12--12----12--12--12---12--12----12--12--12---12--12----12--12--14-14-14-14-14------------------|
E|------------------------------------------------------------------0--0--0--0--0------------------|
  now you're gonnna run   now you're gonnna run   now you're gonnna run
                                 
[Solo]
e|---------------------------------------------------------------------------|
B|-15-14-12-10--9-10-12-9-10-12-9-10-12----3-2-0---7-7-5---------------------|
G|--------------------------------------9--------2---------------------------|
D|---------------------------------------------------------------------------|
A|---------------------------------------------------------------------------|
E|---------------------------------------------------------------------------|

[Outro]
e|-------------------------------------------------------------------------------------------------|
B|-10--10----10--10--10---10--10----10--10--10---10--10----10--10----------------------------------|
G|-11--11----11--11--11---11--11----11--11--11---11--11----11--11----------------------------------|
D|--x---x---------x---x----x---x-----x---x---x----x---x-----x---x--14-14-14-14-14------------------|
A|-12--12----12--12--12---12--12----12--12--12---12--12----12--12--14-14-14-14-14------------------|
E|------------------------------------------------------------------0--0--0--0--0------------------|
  now you're gonnna run   now you're gonnna run   now you're gonnna run


************************************

| x   Dead note

************************************

            
            
Suggest correction
Creating personal tab
Creating personal tab
You can edit any tab online and save it as your Personal.

You can edit, replace or remove any tab part or add personal notes – all changes will be seen only by you.

Personal tabs can be accessed anytime from any device, even offline.
Learn more »
Give kudos to tab author, rate the tab!
1 2 3 4 5
comments
print report bad tab
guest
You may want to rate the tab now too:
select rating
Wanna post a correction for this tab? Suggest correction